Song name
# A B C D E F G H I J K L M N O P Q R S T U V W X Y Z

Aiden - I Set My Friends On Fire tab

Aiden
I Set My Friends On Fire         -i got the tab from Reyjakai and edited it
-Drop D tuning


Intro

Guitar 1
-------|---------------------------------------------------------|
-------|---------------------------------------------------------|
-------|---------------------------------------------------------|
-4-3-4-|-------4-3-4---------4-3-4---------4-3-4-6-4-3-4---------|
-------|-------------------------------------------------4-------|
-------|---------------------------------------------------------|

       |---------------------------------------------------------|
       |---------------------------------------------------------|
       |---------------------------------------------------------|
       |-4-3-4---------4-3-4---------4-3-4---------4-3-4-6-4-3---|
       |---------------------------------------------------------|
       |---------------------------------------------------------|

Guitar 2
       |---------------------------------------------------------|
       |---------------------------------------------------------|
       |---------------------------------------------------------|
       |---------------4-4-4---4-444-6-6-6---6-666-6-6-6---6-666-| x2
       |-1-1-1---1-111-2-2-2---2-222-4-4-4---4-444-4-4-4---4-444-|
       |-1-1-1---1-111-------------------------------------------|



Verse
(play 2x)
Guitar 1
|-----------------------------------------------------------------|
|-----------------------------------------------------------------|
|-6---------------------6----------6----------6-------------------|
|-4---------------------4----------4----------4--6666666644443333-|
|---------------1-1-1-1----1-1-1-1----1-1-1-1---------------------|
|---------------1-1-1-1----1-1-1-1----1-1-1-1---------------------|
             PM . . . .    . . . .    . . . .

Guitar 2
|-----------------------------------------------------------------|
|-----------------------------------------------------------------|
|-----------------------6----------6----------6-------------------|
|-1---------------------4----------4----------4--6-------4--------|
|-1-------------1-1-1-1----1-1-1-1----1-1-1-1----6-------4--------|
|-1-------------1-1-1-1----1-1-1-1----1-1-1-1----6-------4--------|
             PM . . . .    . . . .    . . . .



Interlude

Guitar 1
|-----------------------------------------------------------------|
|-----------------------------------------------------------------|
|-----------------------------------------------------------------|
|---8-6-------------8-6-------------8-6-------------8-6-----------|
|-6-----8-9-8-9-6-6-----8-9-8-9-6-6-----8-9-8-9-6-6-----8-9-8-9-6-|
|-----------------------------------------------------------------|

Guitar 2
|------------------------------------------------------------------|
|------------------------------------------------------------------|
|------------------------------------------------------------------|
|------------------------------------------------------------------|
|-6666666666666666999999888888999944444444444444449999998888889999-|
|------------------------------------------------------------------|


Verse

Guitar 1
|--------------------------------------------------------|
|--------------------------------------------------------|
|--------------------------------------------------------|
|-------------------------4-4-4-4-4---6-6-6-6-6-66664444-| x2
|-1-1-1-1-1---1-1-1-1-1---2-2-2-2-2---4-4-4-4-4----------|
|-1-1-1-1-1---1-1-1-1-1----------------------------------|
pm. . . . .   . . . . .   . . . . .   . . . . . 

|-----------------------------------------------|
|-----------------------------------------------|
|-------------------------4-4-4---6-6-66--------|
|--1-1-1-1-2--1-1-1-11-2--4-4-4-2-6-6-66-4-4-2--| x2
|--1-1-1-1-4--1-1-1-11-4--2-2-2-4-4-4-44-4-4-4--|
|--1-1-1-1----1-1-1-11-------------------4-4----|
pm . . . .    . . . ..    . . .   . . .. . .

Guitar 2
|-------------------------------------------------|
|-------------------------------------------------|
|-------------------------------------------------|
|---8-6---------8-6---------8-6---------8-6-------| x4
|-6-----8-9-4-6-----8-9-4-6-----8-9-4-6-----8-9-4-|
|-------------------------------------------------|


Harmony
(play 12x)
Guitar 1
|---6-4-------|
|-4-----6-7-4-|
|-------------|
|-------------|
|-------------|
|-------------|

Guitar 2
|-------------|
|-------------|
|-------------|
|---8-6-------|
|-6-----8-9-4-|
|-------------|



Interlude
(play 2x)
Guitar 1
|-----------------------------------------------------------------|
|-----------------------------------------------------------------|
|-----------------------------------------------------------------|
|---8-6-------------8-6-------------8-6-------------8-6-----------|
|-6-----8-9-8-9-6-6-----8-9-8-9-6-6-----8-9-8-9-6-6-----8-9-8-9-6-|
|-----------------------------------------------------------------|

Guitar 2
|------------------------------------------------------------------|
|------------------------------------------------------------------|
|------------------------------------------------------------------|
|------------------------------------------------------------------|
|-6666666666666666999999888888999944444444444444449999998888889999-|
|------------------------------------------------------------------|


then...
|------
|------
|------
|--1---
|--1---
|--1---

Bridge

Guitar 3 (guitar 1&2 come in 3rd time)
|-------------------------------------------------|
|--6--6--6--9---7---76---6---6---6--7----9----76--|
|---6--6--6--6---6---------6---6---6--6----6------|
|6---6--6------6---6---6-----6---6------6----6----| x6
|-------------------------------------------------|
|-------------------------------------------------|

Guitar 1
|----8h9-------11h9-8h9-------11h9-8-6-9-7-6-9-------------|
|----------------------------------------------------------|
|----------------------------------------------------------|
|----------------------------------------------------------|
|----------------------------------------------------------|
|----------------------------------------------------------|

Guitar 2
|----------------------------------------------------------|
|--------6h7-9----------6h7-9-7-6-7-6-----6---9------------|
|-------------------------------------6--------------------|
|----------------------------------------------------------|
|----------------------------------------------------------|
|----------------------------------------------------------|



Outro
(figure out how many times to play this yourself)
|------------------------------------------|
|------------------------------------------|
|------------------------------------------|
|-8888888888666666666644444444443333333333-|
|-8888888888666666666644444444443333333333-|
|-8888888888666666666644444444443333333333-|
pm...       ...       ...       ...


|------------------------------------------|
|------------------------------------------|
|------------------------------------------|
|-8888888888666666666644444444443333333333-|
|-8888888888666666666644444444443333333333-|
|-8888888888666666666644444444443333333333-|


|------
|------
|------
|--8---
|--8---
|--8---
Tap to rate this tab
# A B C D E F G H I J K L M N O P Q R S T U V W X Y Z