Song name
# A B C D E F G H I J K L M N O P Q R S T U V W X Y Z

Aiden - Goodbye Were Falling Fast tab

GOODBYE WE'RE FALLING FAST by AIDEN

Both guitars Drop Db

Hope you like the tab!
For timing and stuff listen to the song,its pretty easy if you play along with the
chorus is quite confusing as it changes each time but listen to the song and its easy to work out.enjoy!

Intro
Part 1
Both Guitars

-----------------------------------------------|
-----------------------------------------------|
-----------------------------------------------|
-----------------------------------------------|         |
-----12-----12-----10-10-7-8-7-8---------------|
-0-0----0-0----0-0-----------------------------|         |
 . .    . .    . .
-----------------------------------------------|         |
-----------------------------------------------|
-----------------------------------------------|         |PLAY
-----------------------------------------------|
-----12-----12-----10-10-7-8-7-8---------------|         |THROUGH
-0-0----0-0----0-0-----------------------------|
 . .    . .    . .                                       |THIS
-----------------------------------------------|
-----------------------------------------------|         |SECTION
-----------------------------------------------|
-----------------------------------------------|         |TWICE
-----12-----12-----10-10-7-8-7-8---------------|
-8-8----8-8----8-8-----------------------------|         |
 . .    . .    . .
-----------------------------------------------|         |
-----------------------------------------------|
--------------------------------9-10-9-10------|         |
-----------------------------------------------|
-------12-------12-------10-10-----------------|
-10-10----10-10----10-10-----------------------|
 .  .     .  .     .  .

Part 2
Guitar 1

--------------------------------------|
--------------------------------------|
--------------------------------------|
-0----0-0----0-0----0-0---------------|
-0----0-0----0-0----0-0---------------|
-0----0-0----0-0----0-0--(pickslide)--|

Guitar 2

------------------------------------|
------------------------------------|
-7----7-7----7-7----7-7----8-8-8-8--|
-x----x-x----x-x----x-x----x-x-x-x--|
-5----5-5----5-5----5-5----6-6-6-6--|
-0----0-0----0-0----0-0-------------|

Verse

Guitar 1

----------------------------------------------------------------|
----------------------------------------------------------------|
------------------------------3-3-3-3-3--3-3-3-3--3-3-3-3-------|
-0-0-0-0-0--0-0-0-0--0-0-0-0--3-3-3-3-3--3-3-3-3--3-3-3-3-------|
-0-0-0-0-0--0-0-0-0--0-0-0-0--1-1-1-1-1--1-1-1-1--1-1-1-1-------|
-0-0-0-0-0--0-0-0-0--0-0-0-0------------------------------------|
 . . . . .  . . . .  . . . .  . . . . .  . . . .  . . . .

---------------------------------------------------------------|
---------------------------------------------------------------|
------------------------------5-5-5-5-5--6-6-6-6-6-------------|
-3-3-3-3-3--3-3-3-3--3-3-3-3--5-5-5-5-5--6-6-6-6-6-------------|
-3-3-3-3-3--3-3-3-3--3-3-3-3--3-3-3-3-3--4-4-4-4-4-------------|
-3-3-3-3-3--3-3-3-3--3-3-3-3-----------------------------------|
 . . . . .  . . . .  . . . .  . . . . .  . . . . .

Play this part twice, but on the second time round dont palm mute the end of each group of 4 or 5 notes.

Then
-------|
-------|
-----9-|
---7---|
-5-----|
-------|

Guitar 2

------------------------------------|
------------------------------------|
-14--15-14-14--15-14-17--15--14--15-|
-15--15-15-15--15-15-15--15--14--14-|
------------------------------------|
------------------------------------|

---------------------------            --------------------|
---------------------------            -----13-------------|
-10-12-------10-12-------9-  x4 then   ---10---------------|
-------10-12-------10-12---            -12-----------------|
---------------------------            --------------------|
---------------------------            --------(pickslide)-|

Chorus

Guitar 1

---------------|
---------------|
-10-9-10-12-10-|
-x--x-x--x--x--| x5 (x6 on the second chorus just before bridge)
-8--7-8--10-8--|
---------------|

Guitar 2

-------------------------------------                        ---|
------------------------------------- On the second chorus   ---|
-3-------5----------------3-------5-- play the final chord   -7-|
-3 (x16)-5 (x16)-0--------3 (x16)-5-- here 16 times and      -7-|
-1-------3-------0 (x32)--1-------3-- finish on -->          -5-|
-----------------0-------------------                        ---|

This is followed by the verse again

And then once through the chorus, except with slight differences to the first
notes)

Then:

Bridge
part 1
Guitar 1

------------------------------------------------------------|
------------------------------------------------------------|
-------------------5------3------2-2-2-2-2-2--5-5-5-5-5-5---|
----0-0-0-0-0-0----5(x16)-3(x16)-2-2-2-2-2-2--5-5-5-5-5-5---| x2
----0-0-0-0-0-0----3------1------0-0-0-0-0-0--3-3-3-3-3-3---|
-11/0-0-0-0-0-0---------------------------------------------|
    . . . . .                    . . . . .    . . . . .

only slide down from 11 on the first time.then:

---------------|
---------------|
---------------|
--0-0-0-0-0-0--|
--0-0-0-0-0-0--|
--0-0-0-0-0-0--|
  . . . . .

Guitar 2

-------------------------------------------------------------------|
-------------------------------------------------------------------|
--------------10-10-10-9-9-9-7-7-17----10-10-10-9-9-9-7-7-15-------|
-0-0-0-0-0-0--x--x--x--x-x-x-x-x-x(x8)-x--x--x--x-x-x-x-x-x(x16)---|
-0-0-0-0-0-0--8--8--8--7-7-7-5-5-15----8--8--8--7-7-7-5-5-13-------|
-0-0-0-0-0-0-------------------------------------------------------|
 . . . . .

--------------|
--------------|
-14----17-----|
-x(x8)-x(x8)--|
-12----15-----|
--------------|

This part played twice, followed by:

---------------|
---------------|
---------------|
--0-0-0-0-0-0--|
--0-0-0-0-0-0--|
--0-0-0-0-0-0--|
  . . . . .

part 2
Guitar 1

----------------------------------------|
----------------------------------------|
----------------------------------------|
-10-8-7-8--10-8-7-8--7-8-7---7-8-7---10-| x3
---------------------------8-------8----|
----------------------------------------|
then:
----------------------------------------------------|
-----------------------------R----------------------|
-------------------------------E--------------------|
-10-8-7-8--10-8-7-8--7-8-7-------S------------------|
---------------------------8-------T----------------|
--------------------------------------(pickslides)--|

Guitar 2

-------------------------------|
-------------------------------|
-------------------------------|
-------------------------------| x4
-1 (x16) --3 (x16) --5 (x32)---|
-------------------------------|

After this, play the chorus twice, and then end with both guitars ending on:

--------------|
--------------|
--------------|
--0-----------|
--0(let ring)-
--0-----------

That's it!any questions comments or mistakes you found leave a comment or email me at
ididntasktolookthisgoodgodmademethisway@hotmail.com
Tap to rate this tab
# A B C D E F G H I J K L M N O P Q R S T U V W X Y Z