Song name
# A B C D E F G H I J K L M N O P Q R S T U V W X Y Z

Aiden - We Sleep Forever tab

Aiden - We Sleep Forever

You can play this in standard, don't need to downtune your guitar or
anything.
Since this is my first tab, let me know if you found any mistakes.


Okay, i don't have the intro part, just the rythm part

. - Palm mute
h - Hammer on

e|--------------------------------------------------------|
B|--------------------------------------------------------|
G|--------------------------------------------------------|
D|8-88--6-66---4-44--6-66-----8-88--6-66---4-44--6-666666-|  
A|8-88--6-66---4-44--6-66-----8-88--6-66---4-44--6-666666-|
E|6-66--4-44---2-22--4-44-----6-66--4-44---2-22--4-444444-|
                                                  ......


e|-------------------------------------------------------|
B|-------------------------------------------------------|
G|-------------------------------------------------------|
D|8-88--6-66---4-44--6-66-----8-88--6-66---4-44444-6-666-|
A|8-88--6-66---4-44--6-66-----8-88--6-66---4-44444-6-666-|
E|6-66--4-44---2-22--4-44-----6-66--4-44---2-22222-4-444-|


Verse 1 & 2

(This are the notes played when the "Tragedy unfolds tonight..." part begins)
Note: The muted strings in this part are just optional...
And in verse two, this part is repeated 5 times, not three.

e|---------------------------------------------|
B|---------------------------------------------|  [x3]
G|----------------------------------------8----|
D|----6h8----6h8----6h8----6h8----6h8----6-----|
A|---------------------------------------------|
E|---------------------------------------------|




Chorus


e|-------------------------------------------------------|
B|-------------------------------------------------------|
G|-------------------------------------------------------|
D|8-88--6-66---4-44--6-66-----8-88--6-66---4-44--6-666666|  
A|8-88--6-66---4-44--6-66-----8-88--6-66---4-44--6-666666|
E|6-66--4-44---2-22--4-44-----6-66--4-44---2-22--4-444444|
                                                   ......

e|-------------------------------------------------------------|
B|-------------------------------------------------------------|
G|-------------------------------------------------------------|
D|8-88--6-66---4-44--6-66-----8-88--6-66---4-44444-6-666-666666|
A|8-88--6-66---4-44--6-66-----8-88--6-66---4-44444-6-666-666666|
E|6-66--4-44---2-22--4-44-----6-66--4-44---2-22222-4-444-444444|
                                                  
Bridge (After verse II)

Let this chord ring...

e|-----------|
B|-----------|
G|-----------|
D|8----------|            Guitar I plays this...
A|8----------|
E|6----------|          


...And guitar II plays this

e|-----------------------------------------------|
B|-----------------------------------------------|
G|-----------------------------------------------| Repeat again and again...
D|----------6-66666--8-88888--11-111111-10101010-|
A|8-88888---4-44444--6-66666--9 -9 9 9 -8-8 8 8--|
E|6-66666----------------------------------------|
    .....     .....    .....     . . .    . . .

I will say goodbye tonight...

e|------------------|
B|------------------|
G|------------------|
D|8-----6-----4-----|
A|8-----6-----4-----|
E|6-----4-----2-----|


Breakdown

e|----------------------------------------------------------------|
B|----------------------------------------------------------------|
G|----------------------------------------------------------------|
D|88888--------66666--------44444-------44466---------------------|
A|88888--------66666--------44444-------44466---------------------|
E|66666--------44444--------22222-------22244---------------------|


e|----------------------------------------------------------------|
B|----------------------------------------------------------------|
G|----------------------------------------------------------------|
D|88888--------66666--------44444-------44466---------------------|
A|88888--------66666--------44444-------44466---------------------|
E|66666--------44444--------22222-------22244---------------------|


e|----------------------------------------------------------------|
B|----------------------------------------------------------------|
G|----------------------------------------------------------------|
D|88888--------66666--------44444----11111111---------------------|
A|88888--------66666--------44444----11111111---------------------|
E|66666--------44444--------22222----33333333---------------------|
                                     ........
Chorus

e|-------------------------------------------------------|
B|-------------------------------------------------------|
G|-------------------------------------------------------|
D|8-88--6-66---4-44--6-66-----8-88--6-66---4-44--6-666666|  
A|8-88--6-66---4-44--6-66-----8-88--6-66---4-44--6-666666|
E|6-66--4-44---2-22--4-44-----6-66--4-44---2-22--4-444444|
                                                   ......

e|-------------------------------------------------------------|
B|-------------------------------------------------------------|
G|-------------------------------------------------------------|
D|8-88--6-66---4-44--6-66-----8-88--6-66---4-44444-6-666-666666|
A|8-88--6-66---4-44--6-66-----8-88--6-66---4-44444-6-666-666666|
E|6-66--4-44---2-22--4-44-----6-66--4-44---2-22222-4-444-444444|
                                      
                 
e|-------------------------------------------------------|
B|-------------------------------------------------------|
G|-------------------------------------------------------|
D|8-88--6-66---4-44--6-66-----8-88--6-66---4-44--6-666666|  
A|8-88--6-66---4-44--6-66-----8-88--6-66---4-44--6-666666|
E|6-66--4-44---2-22--4-44-----6-66--4-44---2-22--4-444444|
                                                   ......

e|-------------------------------------------------------------|
B|-------------------------------------------------------------|
G|-------------------------------------------------------------|
D|8-88--6-66---4-44--6-66-----8-88--6-66---4-44444-6-666-666666|
A|8-88--6-66---4-44--6-66-----8-88--6-66---4-44444-6-666-666666|
E|6-66--4-44---2-22--4-44-----6-66--4-44---2-22222-4-444-444444|
                                                         ......
e|---|
B|---|
G|---| Let ring...
D|3--|
A|3--|
E|1--|              

That's it, i guess. 
Send me an e-mail if you see anything wrong.
andresgbr@hotmail.com 

By: Andrusho. x]
Tap to rate this tab
# A B C D E F G H I J K L M N O P Q R S T U V W X Y Z