Song name
# A B C D E F G H I J K L M N O P Q R S T U V W X Y Z

Aiden - World By Storm tab

 The only other tab I found for this song was quite empty, so I decided to do my own 
Guitar one is the guitar on your left headphone, guitar two is on the right. As you may 
it would be possible to do a good single guitar version, but my version covers both guitars.

P.S. the timings off, so listen to the song for correct timings.

pm= palm mute

  Intro

 guitar 1  distorted

e-------------------------------------------|
b-------------------------------------------|
g-------------------------------------------|
d-----------------------------10-8-6--------|
a6-8-10--10-8-6--6-8-10--10-8--------10-8-6-|
e-------------------------------------------|
play twice

 guitar 2  clean

e-------------------------------------------|
b-------------------------------------------|
g----8--------8------------8----------------|
d--10-10-8-10--10-8-10-8-10-----------------|
a-------------------------------------------|
e-------------------------------------------|
play 8 times

both guitars  distorted

e---
b---
g-8-
d-6-
a---
e---

 "We will spill their blood..."

 guitar 1  distorted

e-------------------------------------------|
b-------------------------------------------|
g-12-13-12-13-12-13-------------------------|
d-12-13-12-13-12-13-13-13-13-13-13-13-13-13-|
a-10-11-10-11-10-11-13-13-13-13-13-13-13-13-|
e-------------------11-11-11-11-11-11-11-11-|
play 4 times
on fourth time add another 8 of the last chord

 guitar 2  distorted

e-------------------------------------------|
b-------------------------------------------|
g-12-12-12-13-13-13-15-15-15-15-15-15-15-15-|
d-12-12-12-13-13-13-15-15-15-15-15-15-15-15-|
a-10-10-10-11-11-11-13-13-13-13-13-13-13-13-|
e-------------------------------------------|
play 4 times
as with guitar one, extend last chord

 Verse

 guitar 1  distorted

e-------------------------------------------------------------|
b-------------------------------------------------------------|
g-------------------------------------------------------------|
d-12-12----13-15-17-12-12-------------13-13-13-13-13-13-13-13-|
a-10-10-------------10-10-------------11-11-11-11-11-11-11-11-|
e-------------------------------------------------------------|
play twice

 guitar 2  distorted

e-------------------------------------------------------------|
b-------------------------------------------------------------|
g-------------------------------------------------------------|
d-12-12-------------12-12----17-15-13-13-13-13-13-13-13-13-13-|
a-10-10-------------10-10-------------11-11-11-11-11-11-11-11-|
e-------------------------------------------------------------|

 Pre-chorus

 guitar 1  distorted

e---------------------------------------------------[-------]
b---------------------------------------------------[-------]
g---------------------------------------------------[-------]
d------------------------8-10-8---------------------[8-10-8-]
a-6-8-10---------10-10-6--------8-8-5-------10-10-6-[-------]
e---------------------------------------------------[-------]
play twice
only play the bracketed [] part the first time

 guitar 2  distorted

e---------------------------------------------------[-------]
b---------------------------------------------------[-------]
g---------------------------------------------------[-------]
d--------8-10-8----------------------8-10-8---------[-------]
a-6-8-10--------10-10-6--------8-8-5--------10-10-6-[-------]
e---------------------------------------------------[-------]
play twice
as on guitar 1, only leave bracketed pause the first time

 both guitars  distorted

e-------|
b-------|
g-------|
d-6-6-6-|
a-6-6-6-|
e-4-4-4-|
this part takes the place of the bracketed bar the second time

 Chorus

 guitar 1  distorted

e----------------------------------------------------------------------|
b----------------------------------------------------------------------|
g----------------------------------------------------------------------|
d-8-8-101012-12-12-12-12-12-12-12-8-8-8-8-101010107-7-7-7-12-13-12-108-|
a-6-6-8-8-10-10-10-10-10-10-10-10-6-6-6-6-8-8-8-8-5-5-5-5-10-11-10-8-6-|
e----------------------------------------------------------------------|
play twice

 guitar 2  distorted

e--------------------------------------------------------------------------|
b--------------------------------------------------------------------------|
g-8-8-8-8-8-8-8-8-12-12-12-12-12-12-12-12-7-7-7-7-7-7-7-7-1010101010101010-|
d-8-8-8-8-8-8-8-8-12-12-12-12-12-12-12-12-7-7-7-7-7-7-7-7-1010101010101010-|
a-6-6-6-6-6-6-6-6-10-10-10-10-10-10-10-10-5-5-5-5-5-5-5-5-8-8-8-8-8-8-8-8--|
e--------------------------------------------------------------------------|
play twice

 both guitars  distorted

     pmpmpmpmpmpmpm
e------------------------|
b------------------------|
g-8--8-8-8-8-8-8-8-8--8--|
d-8--8-8-8-8-8-8-8-8--8--|
a-6--6-6-6-6-6-6-6-6--6--|
e------------------------|


 Repeat "We will spill their blood..."

 Repeat Verse

 Repeat Pre-Chorus


 "One! Two! One, two, one two three four!"

 Guitar 1  distorted (I think clean sounds cool here two. Try it)

e-----------------|
b-----------------|
g-8-8-8-8-8-8-8-8-|
d-8-8-8-8-8-8-8-8-|
a-----------------|
e-----------------|
play four times
guitar two is silent here

 "The world by storm"

 Both guitars  distorted

e-------------------------------------|
b-------------------------------------|
g-12-12-12-12-101010108-8-8-8-8-8-8-8-|
d-12-12-12-12-101010108-8-8-8-8-8-8-8-|
a-10-10-10-10-8-8-8-8-6-6-6-6-6-6-6-6-|
e-------------------------------------|
repeat to fade
if your playing live, take a solo here. I think guitar 2 plays the solo in the recording

And thats it! Play loud, rock hard and enjoy!
Tap to rate this tab
 
# A B C D E F G H I J K L M N O P Q R S T U V W X Y Z