Song name
# A B C D E F G H I J K L M N O P Q R S T U V W X Y Z

Aiden - She Will Love You tab

She Will Love You Solo
Aiden
Conviction

I Tried to make it as simple as I could.
Most people who play aiden's guitar are either tabbing it,
Or they're beginners. (MOST of the time).
So take your time and you'll get there.
It's actually very, very easy.
Good Luck.

High: 8
Mid: 6
Low: 3

Danelectro's "Cool Cat" Overdrive throughout the whole song.

   Comes In at [2:34]
        Use Heavy Chorus, Treble and "Spinning speaker"
[Chorus, Treble and "Spinning Speaker are guitar effects,]
[usually from effect pedals. Don't stress if you don't have them]
[It's not needed, it just won't sound exactly like the song.]
                        
                             PM PM            PM            
D#||----------------------------------------------|
A#||----------------------------------------------|
F#||-------8h10h8--/11p--10--------/11p---10------|
C#||-6h8h9-------------------8--8--------------8--|
G#||----------------------------------------------|
C#||----------------------------------------------|

             PM PM        PM        PM
-----------------------------------------------|
-----------------------------------------------|
--/11p---10--------/11p-10---/11p-10---/11p-10-|
--------------8--8---------8---------8---------|
-----------------------------------------------|
-----------------------------------------------|
 
----------------------------------------|
----------------------------------------|
----------------------------------------|
--/9---9p-8---8p-6---6p-4---4-3h-4p-3---|
--------------------------------------4-|
----------------------------------------|


----------------------------------------|------------------------------------|
----------------------------------------|------------------------------------|
----------------------------------------|------------------------------------|
--/9---9p-8---8p-6---6p-4---4-3h-4p-3---|--/6---4-------3h-4----3h-4----3h-4-|
--------------------------------------4-|------------6-------6-------6-------|
----------------------------------------|------------------------------------|


              PM      PM      PM       
   E.  E  S S S  S  S S  S  S S  S  S  
--------------------------------------|
--------------------------------------|
--------------------------------------|
--/6---4--4-4----6h-8----8p-6----6h-8-|
----------6-6-6-------6-------6-------|
----------x-x-------------------------|

The Mutes are very important.

   PM PM PM PM PM      PM        PM    PM                         
----------------------------------------------|
----------------------------------------------|
---x--x--x--x--x-11--x--x-11-11---x-11-11--x--|
---x--x-11-13-13--x-13--x--x--x--13--x--x-13--|
---x--x--x--x--x--x--x--x--x--x---x--x--x--x--|
--11-11--x--x--x--x--x-13--x--x---x--x--x--x--|


   Index On 11 and middle on 12, bend during pulloff                            

--12p----11----12p-11----12----14~---|
--11b----------11b-------11pbr-11~---|
-------------------------------------|
-------------------------------------|
-------------------------------------|


   Slowly bend up 1 step. 11b(13)                               
-----------------------------------|
--11---11--11--11--11--11--11--11--|
-----------------------------------|
-----------------------------------| x3
-----------------------------------|
-----------------------------------|

                       SH    SH Means Semi Harmonic.     
-----------------------------|| Where you can still hear
--11----13----14----<>16\----|| The original octave and
-----------------------------|| 1 octave higher harmony.
-----------------------------||
-----------------------------||
-----------------------------||

---------------------------------------
***************************************
-Seth "Shadows" Sanders.
{F.u.c.kallyourfalsebeauty@hotmail.com}
***************************************
---------------------------------------
Tap to rate this tab
# A B C D E F G H I J K L M N O P Q R S T U V W X Y Z