Song name
# A B C D E F G H I J K L M N O P Q R S T U V W X Y Z

Aiden - Teenage Queen tab

----------------------------------------------------------------------------
			   TEENAGE QUEEN - Aiden
----------------------------------------------------------------------------
Tabbed by: guitargrove
Email: volcomgrove@yahoo.com

Tuning: Standard

Guitar I- Angel Ibarra
Guitar II- Jake Wambold

(NOTE: I haven't quite yet gotten the bridge completed yet, but as soon as I have it 
I will update. I'm having trouble figuring it out, so if anyone has any suggestions, please 
me know)


INTRO/POST CHORUS


[Guitar I]
e|-------------------------------------------------------------------------|
B|-------------------------------------------------------------------------|
G|--10--10-10-9--10--10-10-10-10-10---10--10-10-12--14-14-12-12-10-10-9-9--|
D|--x---x--x--x--x---x--x--x--x--x----x---x--x--x---x--x--x--x--x--x--x-x--|
A|--8---8--8--7--8---8--8--8--8--8----8---8--8--10--12-12-10-10-8--8--7-7--|
E|-------------------------------------------------------------------------|

e|------------------------------------------------------------------|
B|------------------------------------------------------------------|
G|--10--10-10-9---10--10-10-10-10-10---9-9--9-9--9-9--9-9--9--10\\--|
D|--x---x--x--x---x---x--x--x--x--x----x-x--x-x--x-x--x-x--x--x-\\--|
A|--8---8--8--7---8---8--8--8--8--8----7-7--7-7--7-7--7-7--7--9-\\--|
E|------------------------------------------------------------------|


[Guitar II]
e|--------------------------------------------------------|
B|--------------------------------------------------------|
G|--7--7-7--------------------7--7-7----------------------|
D|--7--7-7--7--8--8-8-8-8-8---7--7-7--7--8--8-8-8-8-8--7--|
A|--5--5-5--7--8--8-8-8-8-8---5--5-5--7--8--8-8-8-8-8--7--|
E|----------5--6--6-6-6-6-6-----------5--6--6-6-6-6-6--5--|

e|-------------------------------------------------------|
B|-------------------------------------------------------|
G|--7--7-7-----------------------------------------------|
D|--7--7-7--7--8--8-8-8-8-8--7-7--7-7--7-7--7-7--7--8\\--|
A|--5--5-5--7--8--8-8-8-8-8--7-7--7-7--7-7--7-7--7--8\\--|
E|----------5--6--6-6-6-6-6--5-5--5-5--5-5--5-5--5--6\\--|


VERSE I


[Guitar I]
e|-----------------------------------------------------------------------|
B|-----------------------------------------------------------------------|
G|-----------------------------------------------------------------------|
D|-----------------------------------------------------------------------|
A|--5-5-5-5-5-5-5-5-5-5-5-5-5-5-5-5---5-5-5-5-5-5-5-5-5-5-5-5-5-5-5-5-0--|
E|-----------------------------------------------------------------------|
   “I can see the void”              “dark like prison take me to the eyes"

e|-------------------------------------------------------------|
B|-------------------------------------------------------------|
G|-------------------------------------9---------9h10-9--------|
D|-------------------------------------10--------10---10-------|
A|-------------------------------------x---------x----x--------|
E|--6-6-6-6-6-6-6-6-6-6-6-6-6-6-6-6----8-8-8-8-8-8----8-8-8-8--|
    “of this boy and now”                      “dance with me”


[Guitar II]
e|-------------------------------------------------------------|
B|-------------------------------------------------------------|
G|--6-6/7~~----------------------------9--9--9-----------------|
D|--x-x/x~~----------------------------10-10-10----------------|
A|--4-4/5~~----------------------------10-10-10----------------|
E|-------------------------------------8--8--8-----------------|


[Guitar I]
e|-----------------------------------------------------------------------|
B|-----------------------------------------------------------------------|
G|-----------------------------------------------------------------------|
D|-----------------------------------------------------------------------|
A|--5-5-5-5-5-5-5-5-5-5-5-5-5-5-5-5---5-5-5-5-5-5-5-5-5-5-5-5-5-5-5-5-0--|
E|-----------------------------------------------------------------------|
   “I can see the world”             “sharp like paper take me to the eyes”

e|-------------------------------------------------------------|
B|-------------------------------------------------------------|
G|-------------------------------------9--9--9-----------------|
D|-------------------------------------10-10-10----------------|
A|-------------------------------------10-10-10----------------|
E|--6-6-6-6-6-6-6-6-6-6-6-6-6-6-6-6----8--8--8-----------------|
   “of this girl and now”                      “dance with me”


PRE CHORUS


[Guitar II]
e|-------------------------------------------------------------------------|
B|-------------------------------------------------------------------------|
G|--6-6/7---7---7---7---7---7---7---7----10--10--10--10---9---9---9---9----|
D|--x-x/x---x---x---x---x---x---x---x----x---x---x---x----x---x---x---x----|
A|--4-4/5---5---5---5---5---5---5---5----8---8---8---8----7---7---7---7----|
E|-------------------------------------------------------------------------|
"He found this one long kiss"                   "The shadows saved forever
                                                       and we're safe"

e|---------------------------------------------------------------------------|
B|---------------------------------------------------------------------------|
G|--7---7---7---7---7---7---7---7----10--10--10--10----9-9-9-9--9------------|
D|--x---x---x---x---x---x---x---x----x---x---x---x-----x-x-x-x--x------------|
A|--5---5---5---5---5---5---5---5----8---8---8---8-----7-7-7-7--7------------|
E|---------------------------------------------------------------------------|
"tonight I'm falling to the ending"                            "dance with me"


[Guitar I]
e|-------------------------------------------------------------------------|
B|-------------------------------------------------------------------------|
G|--6-6/7------------------------------------------------------------------|
D|--x-x/x------------------------------------------------------------------|
A|--4-4/5-5-5-5-5-5-5-5-5-5-5-5-5-5-5-5--8-8-8-8-8-8-8-8--7-7-7-7-7-7-7-7--|
E|-------------------------------------------------------------------------|

e|---------------------------------------------------------------------------|
B|---------------------------------------------------------------------------|
G|-----------------------------------------------------9-9-9-9--9------------|
D|-----------------------------------------------------x-x-x-x--x------------|
A|--5-5-5-5-5-5-5-5-5-5-5-5-5-5-5-5--8-8-8-8-8-8-8-8---7-7-7-7--7------------|
E|---------------------------------------------------------------------------|
                                                               "dance with me"


CHORUS


[Guitar I]
e|----------------------------------------------------------------------|
B|----------------------------------------------------------------------|
G|--10--10-10-10-10-10--9--9-9-9-9-9--5--5-5-5-5-5-5-5-5-5-5-5-5-5-5-5--|
D|--x---x--x--x--x--x---x--x-x-x-x-x--x--x-x-x-x-x-x-x-x-x-x-x-x-x-x-x--|
A|--8---8--8--8--8--8---7--7-7-7-7-7--3--3-3-3-3-3-3-3-3-3-3-3-3-3-3-3--|
E|----------------------------------------------------------------------|
   "Oh! Tonight, I'm a teenage queen! Screams so dark I feel so beautiful..."


[Guitar II]
e|----------------------------------------------------------------|
B|----------------------------------------------------------------|
G|----------------------------------------------------------------|
D|--8--8-8-8-8-8--10--10-10-10-10-10--7--7-7-7-7-7--8--8-8-8-8-8--|
A|--8--8-8-8-8-8--10--10-10-10-10-10--7--7-7-7-7-7--8--8-8-8-8-8--|
E|--6--6-6-6-6-6--8---8--8--8--8--8---5--5-5-5-5-5--6--6-6-6-6-6--|
   "Oh! Tonight, I'm a teenage queen! Screams so dark I feel so beautiful..."


[Guitar I]
e|----------------------------------------------------------------------|
B|----------------------------------------------------------------------|
G|--10--10-10-10-10-10--9--9-9-9-9-9--5--5-5-5-5-5-5-5-5-5-5-5-5-5-5-5--|
D|--x---x--x--x--x--x---x--x-x-x-x-x--x--x-x-x-x-x-x-x-x-x-x-x-x-x-x-x--|
A|--8---8--8--8--8--8---7--7-7-7-7-7--3--3-3-3-3-3-3-3-3-3-3-3-3-3-3-3--|
E|----------------------------------------------------------------------|
   "Oh! Tonight, I'm a teenage queen!"       "And it never stops"


[Guitar II]
e|----------------------------------------------------------------|
B|----------------------------------------------------------------|
G|----------------------------------------------------------------|
D|--8--8-8-8-8-8--10--10-10-10-10-10--7--7-7-7-7-7--3--3-3-3-3-3--|
A|--8--8-8-8-8-8--10--10-10-10-10-10--7--7-7-7-7-7--3--3-3-3-3-3--|
E|--6--6-6-6-6-6--8---8--8--8--8--8---5--5-5-5-5-5--1--1-1-1-1-1--|
   "Oh! Tonight, I'm a teenage queen!"       "And it never stops"

e|---------------------------------------|
B|---------------------------------------|
G|---------------------------------------|
D|--8--8-8-8-8-8--10--10-10-10-10-10~~---|
A|--8--8-8-8-8-8--10--10-10-10-10-10~~---|
E|--6--6-6-6-6-6--8---8--8--8--8--8-~~---|
 "The world we live won't laugh this hard"


[Guitar I]
e|-------------------------------------------------------------------------|
B|-------------------------------------------------------------------------|
G|--10----9----7----5----4/5-----------------------------------------------|
D|--x-----x----x----x----x/x-----------------------------------------------|
A|--8-----7----5----3----2/3-----------------------------------------------|
E|-------------------------------------------------------------------------|
"The weight of the world won't seem so bad now?"


INTRO/POST CHORUS


[Guitar I]
e|-------------------------------------------------------------------------|
B|-------------------------------------------------------------------------|
G|--10--10-10-9--10--10-10-10-10-10---10--10-10-12--14-14-12-12-10-10-9-9--|
D|--x---x--x--x--x---x--x--x--x--x----x---x--x--x---x--x--x--x--x--x--x-x--|
A|--8---8--8--7--8---8--8--8--8--8----8---8--8--10--12-12-10-10-8--8--7-7--|
E|-------------------------------------------------------------------------|

e|------------------------------------------------------------------|
B|------------------------------------------------------------------|
G|--10--10-10-9---10--10-10-10-10-10---9-9--9-9--9-9--9-9--9--10\\--|
D|--x---x--x--x---x---x--x--x--x--x----x-x--x-x--x-x--x-x--x--x-\\--|
A|--8---8--8--7---8---8--8--8--8--8----7-7--7-7--7-7--7-7--7--9-\\--|
E|------------------------------------------------------------------|


[Guitar II]
e|--------------------------------------------------------|
B|--------------------------------------------------------|
G|--7--7-7--------------------7--7-7----------------------|
D|--7--7-7--7--8--8-8-8-8-8---7--7-7--7--8--8-8-8-8-8--7--|
A|--5--5-5--7--8--8-8-8-8-8---5--5-5--7--8--8-8-8-8-8--7--|
E|----------5--6--6-6-6-6-6-----------5--6--6-6-6-6-6--5--|

e|-------------------------------------------------------|
B|-------------------------------------------------------|
G|--7--7-7-----------------------------------------------|
D|--7--7-7--7--8--8-8-8-8-8--7-7--7-7--7-7--7-7--7--8\\--|
A|--5--5-5--7--8--8-8-8-8-8--7-7--7-7--7-7--7-7--7--8\\--|
E|----------5--6--6-6-6-6-6--5-5--5-5--5-5--5-5--5--6\\--|

VERSE II


[Guitar I]
e|-----------------------------------------------------------------------|
B|-----------------------------------------------------------------------|
G|-----------------------------------------------------------------------|
D|-----------------------------------------------------------------------|
A|--5-5-5-5-5-5-5-5-5-5-5-5-5-5-5-5---5-5-5-5-5-5-5-5-5-5-5-5-5-5-5-5-0--|
E|-----------------------------------------------------------------------|
   “Can you feel the noise"          “cut like ribbons take me to the girl"

e|-------------------------------------------------------------|
B|-------------------------------------------------------------|
G|-------------------------------------9---------9h10-9--------|
D|-------------------------------------10--------10---10-------|
A|-------------------------------------x---------x----x--------|
E|--6-6-6-6-6-6-6-6-6-6-6-6-6-6-6-6----8-8-8-8-8-8----8-8-8-8--|
    “in this boy and now”                      “dance with me”

PRE CHORUS


[Guitar II]
e|-------------------------------------------------------------------------|
B|-------------------------------------------------------------------------|
G|--6-6/7---7---7---7---7---7---7---7----10--10--10--10---9---9---9---9----|
D|--x-x/x---x---x---x---x---x---x---x----x---x---x---x----x---x---x---x----|
A|--4-4/5---5---5---5---5---5---5---5----8---8---8---8----7---7---7---7----|
E|-------------------------------------------------------------------------|
"He found this one long kiss"                   "The shadows saved forever
                                                       and we're safe"

e|---------------------------------------------------------------------------|
B|---------------------------------------------------------------------------|
G|--7---7---7---7---7---7---7---7----10--10--10--10----9-9-9-9--9------------|
D|--x---x---x---x---x---x---x---x----x---x---x---x-----x-x-x-x--x------------|
A|--5---5---5---5---5---5---5---5----8---8---8---8-----7-7-7-7--7------------|
E|---------------------------------------------------------------------------|
"tonight I'm falling to the ending"                            "dance with me"


[Guitar I]
e|-------------------------------------------------------------------------|
B|-------------------------------------------------------------------------|
G|--6-6/7------------------------------------------------------------------|
D|--x-x/x------------------------------------------------------------------|
A|--4-4/5-5-5-5-5-5-5-5-5-5-5-5-5-5-5-5--8-8-8-8-8-8-8-8--7-7-7-7-7-7-7-7--|
E|-------------------------------------------------------------------------|

e|---------------------------------------------------------------------------|
B|---------------------------------------------------------------------------|
G|-----------------------------------------------------9-9-9-9--9------------|
D|-----------------------------------------------------x-x-x-x--x------------|
A|--5-5-5-5-5-5-5-5-5-5-5-5-5-5-5-5--8-8-8-8-8-8-8-8---7-7-7-7--7------------|
E|---------------------------------------------------------------------------|
                                                               "dance with me"


2nd CHORUS


[Guitar I]
e|----------------------------------------------------------------------|
B|----------------------------------------------------------------------|
G|--10--10-10-10-10-10--9--9-9-9-9-9--5--5-5-5-5-5-5-5-5-5-5-5-5-5-5-5--|
D|--x---x--x--x--x--x---x--x-x-x-x-x--x--x-x-x-x-x-x-x-x-x-x-x-x-x-x-x--|
A|--8---8--8--8--8--8---7--7-7-7-7-7--3--3-3-3-3-3-3-3-3-3-3-3-3-3-3-3--|
E|----------------------------------------------------------------------|
   "Oh! Tonight, I'm a teenage queen! Screams so dark I feel so beautiful..."


[Guitar II]
e|----------------------------------------------------------------|
B|----------------------------------------------------------------|
G|----------------------------------------------------------------|
D|--8--8-8-8-8-8--10--10-10-10-10-10--7--7-7-7-7-7--8--8-8-8-8-8--|
A|--8--8-8-8-8-8--10--10-10-10-10-10--7--7-7-7-7-7--8--8-8-8-8-8--|
E|--6--6-6-6-6-6--8---8--8--8--8--8---5--5-5-5-5-5--6--6-6-6-6-6--|
   "Oh! Tonight, I'm a teenage queen! Screams so dark I feel so beautiful..."


[Guitar I]
e|----------------------------------------------------------------------|
B|----------------------------------------------------------------------|
G|--10--10-10-10-10-10--9--9-9-9-9-9--5--5-5-5-5-5-5-5-5-5-5-5-5-5-5-5--|
D|--x---x--x--x--x--x---x--x-x-x-x-x--x--x-x-x-x-x-x-x-x-x-x-x-x-x-x-x--|
A|--8---8--8--8--8--8---7--7-7-7-7-7--3--3-3-3-3-3-3-3-3-3-3-3-3-3-3-3--|
E|----------------------------------------------------------------------|
   "Oh! Tonight, I'm a teenage queen! Screams so dark I feel so beautiful..."


[Guitar II]
e|----------------------------------------------------------------|
B|----------------------------------------------------------------|
G|----------------------------------------------------------------|
D|--8--8-8-8-8-8--10--10-10-10-10-10--7--7-7-7-7-7--8--8-8-8-8-8--|
A|--8--8-8-8-8-8--10--10-10-10-10-10--7--7-7-7-7-7--8--8-8-8-8-8--|
E|--6--6-6-6-6-6--8---8--8--8--8--8---5--5-5-5-5-5--6--6-6-6-6-6--|
   "Oh! Tonight, I'm a teenage queen! Screams so dark I feel so beautiful..."

[Guitar I]
e|----------------------------------------------------------------------|
B|----------------------------------------------------------------------|
G|--10--10-10-10-10-10--9--9-9-9-9-9--5--5-5-5-5-5-5-5-5-5-5-5-5-5-5-5--|
D|--x---x--x--x--x--x---x--x-x-x-x-x--x--x-x-x-x-x-x-x-x-x-x-x-x-x-x-x--|
A|--8---8--8--8--8--8---7--7-7-7-7-7--3--3-3-3-3-3-3-3-3-3-3-3-3-3-3-3--|
E|----------------------------------------------------------------------|
   "Oh! Tonight, I'm a teenage queen!"       "And it never stops"


[Guitar II]
e|----------------------------------------------------------------|
B|----------------------------------------------------------------|
G|----------------------------------------------------------------|
D|--8--8-8-8-8-8--10--10-10-10-10-10--7--7-7-7-7-7--3--3-3-3-3-3--|
A|--8--8-8-8-8-8--10--10-10-10-10-10--7--7-7-7-7-7--3--3-3-3-3-3--|
E|--6--6-6-6-6-6--8---8--8--8--8--8---5--5-5-5-5-5--1--1-1-1-1-1--|
   "Oh! Tonight, I'm a teenage queen!"       "And it never stops"

e|---------------------------------------|
B|---------------------------------------|
G|---------------------------------------|
D|--8--8-8-8-8-8--10--10-10-10-10-10~~---|
A|--8--8-8-8-8-8--10--10-10-10-10-10~~---|
E|--6--6-6-6-6-6--8---8--8--8--8--8-~~---|
 "The world we live won't laugh this hard"


[Guitar I]
e|-------------------------------------------------------------------------|
B|-------------------------------------------------------------------------|
G|--10----9----7----5----4/5--//////////////-------------------------------|
D|--x-----x----x----x----x/x--//pick slide//-------------------------------|
A|--8-----7----5----3----2/3--//////////////-------------------------------|
E|-------------------------------------------------------------------------|
"The weight of the world won't seem so bad now?"


BRIDGE


[Guitar I]
pm  * * * * * * * * * * * * * * * *  * * * * * * * * * * * * * * * *
e|-------------------------------------------------------------------------|
B|-------------------------------------------------------------------------|
G|-------------------------------------------------------------------------|
D|--7-7-7-7-7-7-7-7-7-7-7-7-7-7-7-7--5-5-5-5-5-5-5-5-5-5-5-5-5-5-5-5-------|
A|--5-5-5-5-5-5-5-5-5-5-5-5-5-5-5-5--3-3-3-3-3-3-3-3-3-3-3-3-3-3-3-3-------|
E|-------------------------------------------------------------------------|
   "Break, break, break, break             "Tonight, tonight
        Now I'm coming to."               I'm a teenage queen."

pm  * * * * * * * * * * * * * * * *  * * * * * * * * * * * * * * * *
e|-------------------------------------------------------------------------|
B|-------------------------------------------------------------------------|
G|-------------------------------------------------------------------------|
D|-------------------------------------------------------------------------|
A|--8-8-8-8-8-8-8-8-8-8-8-8-8-8-8-8--7-7-7-7-7-7-7-7-7-7-7-7-7-7-7-7-------|
E|--6-6-6-6-6-6-6-6-6-6-6-6-6-6-6-6--5-5-5-5-5-5-5-5-5-5-5-5-5-5-5-5-------| x3
   "Take, take, take, take                 "She walks by,
      Now I'm coming to."                  I feel serene."

Song Order
-----------
INTRO
VERSE
PRE-CHORUS
CHORUS
POST-CHORUS
VERSE 2
PRE-CHORUS
CHORUS 2
BRIDGE
CHORUS 3
POST-CHORUS

This songs' really fun to play, yet it's simple and easy. Aiden is a good band, and you 
definitely consider their new album, "Conviction".

I know it's not much, but this is for Janna, who I love more than anything in all 
I will never forget you, no matter what happens...
Tap to rate this tab
 
# A B C D E F G H I J K L M N O P Q R S T U V W X Y Z