Song name
# A B C D E F G H I J K L M N O P Q R S T U V W X Y Z

Aiden - The Sky Is Fallling tab

Help us improve GuitareTab! Take a short survey!
----------------------------------------------------------------------------
			     The sky is Falling - Band Name
----------------------------------------------------------------------------
Tabbed by: les paul fan
Email:nick.homa@verizon.net

Hey i think this is pretty close to the real thing, I watched it from the looney tunes acustic version.

Tuning:

Verse/chorus
e|----------------------------------|
B|----------------------------------|
G|----------------------------------|
D|----------------------------------| x2
A|--5-5-5-5-5-5-5-5-7-7-7-7-7-7-7-7-|
E|-3-3-3-3-5-5-5-5-5-5-5-5-5-5-5-5--|
continued
e|--------------------------------------------------------------------|
B|--------------------------------------------------------------------|
G|--------------------------------------------------------------------|
D|--5-5-5-5------------5-5-5-5----------------------------------------|
A|-5-5-5-5--5-5-5-5-5-5-5-5-5--5-5-5-5-5-5-5-5-5-5-5-5-5-5-5-7-7-7-7--|
E|---------3-3-3-3-5----------5-5-5-5-5-5-5-3-3-3-3-5-5-5-5-5-5-5-5---|

Pre verse thing
e|-----------------------------------------------------------|
B|-----------------------------------------------------------|
G|-----------------------------------------------------------|
D|---------------------------5-5-5-5-7-7-7-7-----------------| 
A|--7-7-7-7-5-5-5-5-5-5-5-5-5-5-5-5-5-5-5-5--5-5-5-5-5-5-5-5-|
E|-5-5-5-5-5-5-5-5-3-3-3-3------------------3-3-3-3-5-5-5-5--|

Outro/chorus
e|------------------|
B|------------------|
G|------------------|
D|-5555777799997777-|
A|-5555777799997777-|
E|-3333555577775555-|

Verse x2
Pre verse x2
Verse x2
Pre verse x1
Chorus x6

Please rate!
Related for The Sky Is Fallling tab