Song name
# A B C D E F G H I J K L M N O P Q R S T U V W X Y Z

Aiko Kayou - Eyes tab

Artist: Kayou Aiko
Lyrics: Kenn Kato

Composition: ?

Notes:   "\" means  slide


CHORDS:

C#m =

E  ----0---|
B  ----2---|
G  ----1---|
D  ----2---|
A x--------|
E x--------|


C#m (2) =

E  ----4-----|
B  ----5-----|
G  ----6-----|
D  ----6-----|
A  ----4-----|
E  ----4-----|


D#m =

E  ----2---|
B  ----4---|
G  ----3---|
D  ----4---|
A x--------|
E x--------|


D#m7 =

E  ----2---|
B  ----2---|
G  ----3---|
D  ----1---|
A x--------|
E x--------|

G#7 =

E ----4----|
B ----4----|
G ----5----|
D ----4----|
A ----6----|
E ----4----|

Bbsus4=

E  ----1----|
B  ----4----|
G  ----3----|
D  ----3----|
A  ----1----|
E x---------|


INTRO:

  F#         Fm       D#m7        Bbm       G#

E ---4\6------3\4----- 1\2-1----------------------|
B -5\6---4\6-4----2\4-2------2---1-2--2-4-2-1-2-4-|
G -----------------------------3------------------|
D ------------------------------------------------|
A ------------------------------------------------|
E ------------------------------------------------|

   F#       Fm     D#m7      Bbm

E ----6------4------2-------------|
B -5\6--4\6-4--2\4-2--------------|
G -----------------------3-5-6----|
D --------------------------------|
A --------------------------------|
E --------------------------------|

F#                G#7       Bbm
ryoote o hirogete    Uketomeru  ni wa
     F#         G#      G#7 G#
mada sukoshii fuan  dakedo

F#                  G#          Bbm
moshi genjitsu kara   me wo sorashitara
    F#             G#      G#7 G#
shinjitsu wa mitsu karanai

     F#        G#   Fm       Bb   Bbsus4 D#m
nani mo kamo mina omoi toori iku   n a n t e
      G#C#  D#m \ C#m
a r i e n a i  yo ne?

  A             B
hitotsu kanaeru tabi ni
  G#m             C#m(2)
hitotsu zutsu nakushiteku
A            B
katachi ni suru tabi
     E      C#m
yume wa kieiku kedo

  A               B
kokoro no me ga mirai wo
  G#m         C#m(2)
miushinawanai you ni
    A          B
hitamukina ano omoi
    C#m(2)       A   G#m  C#m(2)
wasurezuni...To be


   A        G#m        C#m(2)....


E -4--------4-----------4-------|
B ------------------------------|
G ---4-6-4-----4-6-4------4-6-4-|
D --6--------6-----------6------|
A ------------------------------|
E ------------------------------|

F#                G#     Bbm
 jibun wo shinjite ikiteiku ni wa
   F#           G#    G#7
amari ni mo tayorinakute

F#               G#         Bbm
 dareka no ude ni mi wo yudanetai
   F#          G#
sonna hi mo kitto aru yo ne

    F#     G#     Fm       Bb      Bbsus4D#m
keredo amaete iru dake ja IYA  d a n a n t e
      G#    C#  D#m \    C#m
MURI  s h i t e r u   ka na?

  A             B
hitowa hitori kiride wa
  G#m           C#m(2)
nanimo dekiyashinaiyo
A          B
sonna koto kurai
   E        C#m
wakatte wa iru kedo
  A              B
kokoro no me ga egaita
  G#m          C#m(2)
jibun rashiku aritai
    A           B
dakara kono yowasakara
    C#m(2)     A   G#m  C#m(2)
nigenaide...To be

A   G#m  C#m(2)...

C#m(2)          B        E              C#m(2)
otona ni chikazukuhodo jibun ga usureteiku yo
  A           B        G#m        Cm#7 E
jikan to iu mahoo ni  (Woo)  maketakunai


(Instrumental  3:28)

   A      E    F#m       C#m

E -9-11-12------------------------|
B --------12---10--10-9-7-7---9---|
G --------------------------------|
D --------------------------------|
A --------------------------------|
E --------------------------------|


   A      E    F#m  B    E

E -9-11-12--12--------------------|
B --------12---10-----12-10--9----|
G --------------------------------|
D --------------------------------|
A --------------------------------|
E --------------------------------|

  A             B
hitotsu kanaeru tabi ni
  G#m             C#m(2)
hitotsu zutsu nakushiteku
A            B
katachi ni suru tabi
     E      C#m
yume wa kieiku kedo

  A               B
kokoro no me ga mirai wo
  G#m         C#m(2)
miushinawanai you ni
    A          B
hitamukina ano omoi
    C#m(2)       A   G#m  C#m(2)
wasurezuni...To be


(Finish)

   A        G#m        C#m(2)....


E -4--------4-----------4-------|
B ------------------------------|
G ---4-6-4-----4-6-4------4-6-4-|
D --6--------6-----------6------|
A ------------------------------|
E ------------------------------|

嘉陽愛子, Kayō Aiko

Aiko Kayoo official site:

http://www.fit-fan.co.jp/artist/kayo/index.html

Avex Trax artist web:

http://avexnet.jp/id/kayoa/

Thanks for watching.

For doubts, comments and requests mail me to:

joshel_999@hotmail.com
fjoshel@yahoo.com

Tambien para gente que habla espanyol con todo gusto. (Ojo no me permiten kanjis ni 
ni la enye para espaņol jaja)

Long life to the guitar players...!!!

See ya!!!
Tap to rate this tab
# A B C D E F G H I J K L M N O P Q R S T U V W X Y Z