Song name
# A B C D E F G H I J K L M N O P Q R S T U V W X Y Z

Aimee B - Future In My Hands tab

Dunno if its right.. well here it goes


Twice

E-------------------------------------|
B-------------------------------------|
G--0--3-5---0--3-5---0--3-5--6/5-3----|
D--0--3-5---0--3-5---0--3-5--6/5-3----|
A-------------------------------------|
E-------------------------------------|

The chords
E-------------------------------------|
B-------------------------------------|
G-------------------------------------|
D--5------8------10------11-----------|
A--5------8------10------11-----------|
E--3------6------8-------9------------|
Tap to rate this tab
# A B C D E F G H I J K L M N O P Q R S T U V W X Y Z