Song name
# A B C D E F G H I J K L M N O P Q R S T U V W X Y Z

Aimee B - Light Your Heart Up tab

"Light Your Heart Up"
from Kill la Kill Original Soundtrack
composer: Hiroyuki Sawano
vocals: Aimee Blackschleger
tab by: Grue3

Main riff (Intro / Verse A / Bridge)

   G  Bb Eb F  G  Bb C  F
E|----------------------------------------------------------|
B|----------------------------------------------------------|
G|----3--3--------3--5--------------------------------------|
D|-5--3--1--3--5--3--5--3-----------------------------------|
A|-5--1--1--3--5--1--3--3-----------------------------------|
E|-3--------1--3--------1-----------------------------------|

Verse B

   Bb Eb F  C  G  Bb F  G  Bb Eb F  G  Ab Bbm  Bbsus2
E|----------------------------------------------------------|
B|----------------------------------------2--2-1------------|
G|-3--3-----5-----3--------3--3-----------3--3-3------------|
D|-3--1--3--5--5--3--3--5--3--1--3--5--6--3--3-3------------|
A|-1--1--3--3--5--1--3--5--1--1--3--5--6--1--1-1------------|
E|-------1-----3-----1--3--------1--3--4--------------------|

Chorus

   Bb F  Eb F  G  Bb Eb F  G  Bb C  F  G  Bb Eb F
E|----------------------------------------------------------|
B|----------------------------------------------------------|
G|-3-----3--------3--3--------3--5--------3--3--------------|
D|-3--3--1--3--5--3--1--3--5--3--5--3--5--3--1--3-----------|
A|-1--3--1--3--5--1--1--3--5--1--3--3--5--1--1--3-----------|
E|----1-----1--3--------1--3--------1--3--------1-----------|

Outro
   Bb F  Eb F  G  D  Eb F  G  Bb C  F  G  D  Eb F
E|----------------------------------------------------------|
B|----------------------------------------------------------|
G|-3-----3--------------------3--5--------------------------|
D|-3--3--1--3--5--7--8--3--5--3--5--3--5--7--8--3-----------|
A|-1--3--1--3--5--5--6--3--5--1--3--3--5--5--6--3-----------|
E|----1-----1--3--5--6--1--3--------1--3--5--6--1-----------|

Intro
Verse A
Verse B (upstroke)
Chorus (distortion)
Bridge (distortion)
Verse A
Verse B (upstroke)
Chorus (distortion)
Bridge (distortion)
Chorus (clear, then distortion)
Bridge (distortion)
Outro
Tap to rate this tab
 
# A B C D E F G H I J K L M N O P Q R S T U V W X Y Z