Song name
# A B C D E F G H I J K L M N O P Q R S T U V W X Y Z

Aimee Mann - Momentum tab

Aimee Mann - Momentum

Tabbed by Avi Yaacov
Israel, August 4, 2013


e|----------------------------------------|
B|--15b17----15b17r15p13--15--13--17-17---|
G|----------------------------------------|
D|----------------------------------------|
A|----------------------------------------|
E|----------------------------------------|

e|-------------------------------------------------|
B|-----15-17---18v--17v--15v--13v-----------13-12--|
G|--17-----------------------------14v---14--------|
D|-------------------------------------------------|
A|-------------------------------------------------|
E|-------------------------------------------------|

e|--19bb--17bb------------|-----------------------------------17----17-16--|
B|-------------17bb-------|-----13-15-18v--17v--15v--13v--/18----18----17--|
G|------------------14bb--|--14--------------------------------------------|
D|------------------------|------------------------------------------------|
A|------------------------|------------------------------------------------|
E|------------------------|------------------------------------------------|

e|-----------------------------15--17v---------------|
B|-----13-------13-15-------17---------15b16r15------|
G|--14-------14----------17----------------------17--|
D|---------------------------------------------------|
A|---------------------------------------------------|
E|---------------------------------------------------|

e|--17----17-17-15--------------------------------|
B|--------------------17-15--------15---15b16r15--|
G|--------------------------17-------17-----------|
D|------------------------------------------------|
A|------------------------------------------------|
E|------------------------------------------------|



e|-----------------------------------------------17--17-17-15---------------|
B|--15----------pullback---13/----13----13/12----------------15b16r15-------|
G|-----17-14----14/-fast-------------14-------------------------------17vv--|
D|-----------17-------------------------------------------------------------|
A|--------------------------------------------------------------------------|
E|--------------------------------------------------------------------------|
Tap to rate this tab
# A B C D E F G H I J K L M N O P Q R S T U V W X Y Z