Song name
# A B C D E F G H I J K L M N O P Q R S T U V W X Y Z

Aimee Mann - Driving Sideways tab

Driving Sideways - Aimee Mann

Tabbed by Avi Yaacov
Israel, August 4, 2013



Small fills:


     1:14            1:16        1:20          1:28
e|-------------|-------------|-------------|-------11vv---|
B|-------------|-------------|-------------|--------------|
G|--12b13r12---|---14b15r14--|-------------|---/12--------|
D|-------------|-------------|-------------|--------------|
A|-------------|-------------|--12h13-12---|--------------|
E|-------------|-------------|-------------|--------------|


   1:34  and in other repeating vocal parts
e|--------------------------------------------------|----------|
B|----------------------11/-------------------------|----------|
G|--12/----8/----10/--------------12/----8/---------|----------|
D|--------------------------------------------10/---|--10-8vv--|
A|--------------------------------------------------|----------|
E|--------------------------------------------------|----------|


  1:58
e|------------------------------------------|
B|------------------------------------------|
G|--/12---10-/12---10-/12----10-12b13r12----|
D|------------------------------------------|
A|------------------------------------------|
E|------------------------------------------|


Main Solo  (3:09):
e|-------------|--------------------------------------|-----------|
B|---15vvvvv---|--------------------------------------|-----------|
G|-------------|--------------------------------------|-----------|
D|-------------|--16--16--14--12---14-14b16r14-12-----|-----------|
A|-------------|----------------------------------14--|--14^--12--|
E|-------------|--------------------------------------|-----------|


e|---------------------|-------------------------------------------|
B|---------------------|-------------------------------------------|
G|-----------11/14vvbb-|---------------------16-14-----------------|
D|--7/12vvv------------|--16-16-14-12--14-16-------16-14-12--------|
A|---------------------|------------------------------------14-12--|
E|---------------------|-------------------------------------------|


e|--------------------------------------------------------|
B|---------------------------12/15-15vv-----15vvvvvvvvv---|
G|---------------11/14-14vv-------------------------------|
D|--9/12-12vv---------------------------------------------|
A|--------------------------------------------------------|
E|--------------------------------------------------------|

the solo obviously has a lot of what I call "spicing", just throw it in after your get 
the idea... Enjoy :)
Tap to rate this tab
 
# A B C D E F G H I J K L M N O P Q R S T U V W X Y Z