Song name
# A B C D E F G H I J K L M N O P Q R S T U V W X Y Z

Aimee Mann - Deathly tab

Deathly - Aimee Mann

Tabbed by Avi Yaacov
August 4, 2013


Solo:

e|-------------------------|---------------------------|
B|-------------------------|---------------------------|
G|----4/6h7--9h7-9/11-9-9--|--11-9-7-7---7h9p7--6h7p6--|
D|--5----------------------|---------------------------|
A|-------------------------|---------------------------|
E|-------------------------|---------------------------|


e|------------------------------------|
B|-----12h14/15---14h15/19vv--17-17---|
G|-/12--------------------------------|
D|------------------------------------|
A|------------------------------------|
E|------------------------------------|



Outro Solo @ 4:24:

e|-----------------------|---------------------------|
B|-----------------------|---------------------------|
G|----4/6h7--6h7/11-9vv--|--11-9-7-7---7h9p7--6h7p6--|
D|--5--------------------|---------------------------|
A|-----------------------|---------------------------|
E|-----------------------|---------------------------|


e|------------------------------------|
B|-----12h14/15---14h15/19vv--17-17---|
G|-/12--------------------------------|
D|------------------------------------|
A|------------------------------------|
E|------------------------------------|


e|--------------------------------------------------------------------------|
B|--19-17-15-15--15h17p15--14h15p14----17b19r17--15-15--15h17p15--14h15p14--|
G|--------------------------------------------------------------------------|
D|--------------------------------------------------------------------------|
A|--------------------------------------------------------------------------|
E|--------------------------------------------------------------------------|


e|----------------------------------------|
B|----------------------------------------|
G|----------------------------------------|
D|--------------------repeat until fade---|
A|--7/9-10-7h9-10-9---10-9vv--------------|
E|----------------------------------------|
Tap to rate this tab
# A B C D E F G H I J K L M N O P Q R S T U V W X Y Z