Guitaretab - guitar tabs
Song name
# A B C D E F G H I J K L M N O P Q R S T U V W X Y Z

Aimee Mann - I Cant Help You Anymore tab

Aimee Mann - I can't help you anymore Ultimate-guitar.com

Intro-

Guitar 1 Accoustic
        C         F6    F

e|--0--0-0-0-0---------------------|
B|--1--1-1-1-1--1-3-1--1-1-1-1-----|
G|--0--0-0-0-0--2-2-2--2-2-2-2-----| Repeat
D|--2--2-2-2-2--3-3-3--3-3-3-3-----|
A|--3--3-3-3-3---------------------|
E|---------------------------------|

Guitar 2 Electric

e|-------------------------------------------------|
B|-------------------------------------------------|
G|------------------7--5-------5-------7--5---5----|
D|--------------5/7----------------5/7------7------|
A|-------------------------------------------------|
E|-------------------------------------------------|
  
  C                   F6    C
That summer was just crazy hot
We walked the fairground parking lot
And with our secret handshakes

            Dm     C
Sealed the deal completely
[ Tab from: http://www.guitaretab.com/a/aimee-mann/68835.html ]
  C                   F6    C
But I'm too close to know just what
Will keep Pandora's boxes shut
And so I'll fail you badly
When you really need me

              G
'Cause I don't know

              Dm
What I should know 

              Am          C
That I can't help you anymore
No, I can't help you anymore
No, I can't help you anymore

I'll get a pen and make a list
And give you my analysis
But I can't write this story
With a happy ending
Was I the bullet or the gun
Or just a target drawn upon
A wall that you decided
Wasn't worth defending?

And I should know
But I don't know
That I can't help you anymore
No, I can't help you anymore
No, I can't help you anymore
Anymore
No, I can't help you

  Am
'Cause baby, look what I have done
  F
The ruins just go on and on
  C                     Dm                F
I've got to let it go now, or it will drag me under

So I can't help you anymore
No, I can't help you anymore
No, I can't help you anymore
Anymore
No, I can't help you anymore

Paul Ardizzone
emitremus3@Hotmail.com
Related for I Cant Help You Anymore tab