Guitaretab - guitar tabs
Song name
# A B C D E F G H I J K L M N O P Q R S T U V W X Y Z

Aina - Serendipity tab

Aina
Serendipity
Days of Rising doom - The Metal Opera

Intro:

e|-------0-2-----|-----0-----------|-------0-2-3-2-0---0-2---2-0-|
B|-0-2-3-----2-2-|-2-3---3-2-0-2-3-|-0-2-3-----------3-----3-----|
G|---------------|-----------------|-----------------------------|
D|---------------|-----------------|-----------------------------|
A|---------------|-----------------|-----------------------------|
E|---------------|-----------------|-----------------------------|

e|----9-10-12-14-9-9-|-9-10-12-10-9----9-10-|
B|-12----------------|--------------12------|
G|-------------------|----------------------|
D|-------------------|----------------------|
A|-------------------|----------------------|
E|-------------------|----------------------|

e|----9-10-12-14-15-14-12-10-12-14-10-14-12-|
B|-12---------------------------------------|
G|------------------------------------------|
D|------------------------------------------|
A|------------------------------------------|
E|------------------------------------------|

Verse:

e|-------0-2-----|-----0-----------|-------0-2-3-2-0---0-2---2-0-|
B|-0-2-3-----2-2-|-2-3---3-2-0-2-3-|-0-2-3-----------3-----3-----|
G|---------------|-----------------|-----------------------------|
D|---------------|-----------------|-----------------------------|
A|---------------|-----------------|-----------------------------|
E|---------------|-----------------|-----------------------------|


Years went by and Angels sighed,
Young girls laughed and old men died
Lovers loved and people tried
To live amongst the shadows

Sunlight chased away the waste
But couldn't take away the taste
Of all that, taken in the haste
Of hatred's bite and swallows

Chorus:

e|-3-3-2-0-|---0-2-0-|-2-00-0---2-2-0-|
B|---------|-3-------|-----3---3-------|
G|---------|---------|-----------------|
D|---------|---------|-----------------|
A|---------|---------|-----------------|
E|---------|---------|-----------------|

But love will bloom even in gloom
And serendipity visits soon

e|-3-3-2-0-|-2---0-----|-3-3-2-0---2-2-|
B|---------|--3---3-0-|---------3-----|
G|---------|-----------|---------------|
D|---------|-----------|---------------|
A|---------|-----------|---------------|
E|---------|-----------|---------------|
[ Tab from: http://www.guitaretab.com/a/aina/135796.html ]
Two fated souls bound for doom
Whose time is all but borrowed
e|-------0-2-----|-----0-----------|-------0-2-3-2-0---0-2---2-0-|
B|-0-2-3-----2-2-|-2-3---3-2-0-2-3-|-0-2-3-----------3-----3-----|
G|---------------|-----------------|-----------------------------|
D|---------------|-----------------|-----------------------------|
A|---------------|-----------------|-----------------------------|
E|---------------|-----------------|-----------------------------|

Then the Sun came to the one
Who'd make him come all but undone
If not for her, He might have won
But lost in all that mattered

She cast his soul in liquid gold
But those who know would have it told
She, too, was touched by his soul
And hand in hand they wandered

Chorus:

e|-3-3-2-0-|---0-2-0-|-2-00-0---2-2-0-|
B|---------|-3-------|-----3---3-------|
G|---------|---------|-----------------|
D|---------|---------|-----------------|
A|---------|---------|-----------------|
E|---------|---------|-----------------|

But love will bloom even in gloom
And serendipity visits soon

e|-3-3-2-0-|-2---0-----|-3-3-2-0---2-2-|
B|---------|--3---3-0-|---------3-----|
G|---------|-----------|---------------|
D|---------|-----------|---------------|
A|---------|-----------|---------------|
E|---------|-----------|---------------|

Two fated souls bound for doom
Whose time is all but borrowed

[Angelic Ainae Choir:]
e|----9-10-12-14-9-9-|-9-10-12-10-9----9-10-|
B|-12----------------|--------------12------|
G|-------------------|----------------------|
D|-------------------|----------------------|
A|-------------------|----------------------|
E|-------------------|----------------------|

e|----9-10-12-14-15-14-12-10-12-14-10-14-12-|
B|-12---------------------------------------|
G|------------------------------------------|
D|------------------------------------------|
A|------------------------------------------|
E|------------------------------------------|


Shaena lithou tou risewr
Parotin lalae amer
Syrius oudeti ere
Kin Oriana vaetou

[translation:]
(All that's forbidden
becomes a love song
Syrius about to fall
And Oriana waits)



e|-------0-2-----|-----0-----------|-------0-2-3-2-0---0-2---2-0-|
B|-0-2-3-----2-2-|-2-3---3-2-0-2-3-|-0-2-3-----------3-----3-----|
G|---------------|-----------------|-----------------------------|
D|---------------|-----------------|-----------------------------|
A|---------------|-----------------|-----------------------------|
E|---------------|-----------------|-----------------------------|
 
[Narrator:]
The made love and all was said
Forever they would share a bed
But little did they know that dread
Was creeping up behind them

Days grow long and silence spawns
The eagerness to right all wrongs
And even though the darkness dawns
Brighter days will follow
Related for Serendipity tab