Song name
# A B C D E F G H I J K L M N O P Q R S T U V W X Y Z

Air Traffic - I Cant Understand tab

Air traffic – I can’t understand

Awesome song
I cannot believe no ones tabbed this song yet!
If anyone works out the chords for this song please email me at:jasonbiddlecombe@hotmail.co.uk

Standard tuning

Main riff which is also played on chorus:
e------------------------------------------------------11-8—11—8-11---11-9-9-11-11-9-9--¦
B---11-9—11—9--11---11-8—11—8—11—9------9--------9----8---------------------------------¦
G-8------8--------8-----8-------8--------8----------------------------------------------¦
D---------------------------------------------------------------------------------------¦
A---------------------------------------------------------------------------------------¦
E---------------------------------------------------------------------------------------¦
(repeat that 3 times the first time just with drums)

(first verse, just piano)
(chorus with main riff)
(second verse on guitar)
e-3-3-3-3----------------------------¦
B---------3-3-3-4sus-3/4-3-----------¦
G-----------------------------3-0----¦
D------------------------------------¦
A------------------------------------¦
E------------------------------------¦

e-7-7-7-7-------------------------------¦
B---------3-3-3-4sus-3/4-3--------------¦
G-----------------------------3-0-------¦
D---------------------------------------¦
A---------------------------------------¦
E---------------------------------------¦    (X2)

(chorus)
(third verse with guitar playing chords)
(bridge)
(chorus)
(riff to finish)
Tap to rate this tab
 
# A B C D E F G H I J K L M N O P Q R S T U V W X Y Z