Song name
# A B C D E F G H I J K L M N O P Q R S T U V W X Y Z

Air Traffic - This Old Town tab

Yo This is a B-side to "Shooting Star" single off album "Your Fractured Life"

This is Transcritped for Guitar


THIS OLD TOWN


    F/E
e|-------------------------| 
B|-------------------------|
G|--10---------------------|
D|--10---------------------|
A|--7----------------------|
E|-------------------------|



Intro (Piano)


e|-------------------------| 
B|-------------------------|
G|----7---5----------------|
D|------------7---5--------|
A|-------------------------|
E|-------------------------|



CHORUS

F F/E Bb



  (Piano) 
e|--------------------------------------| 
B|--------------------------------------|
G|--------5-------7---5-----------------|
D|----7-------7-----------7---5---------|
A|--------------------------------8-----|
E|--------------------------------------|





VERSE

Dm Db G# Bb



Quite simple, with a little piano lead :)

Cheers, Dave 

Any questions www.myspace.com/funkinmonks   daveherd@gmail.com

www.air-traffic.co.uk

Tap to rate this tab
 
# A B C D E F G H I J K L M N O P Q R S T U V W X Y Z