Song name
# A B C D E F G H I J K L M N O P Q R S T U V W X Y Z

Air Traffic - Running Caught Me High tab

Running caught me high - Air Traffic

Chords Used - Em D C A G F#

Intro/ Verse
   Em           G          D
e---------------------------------------------------------|
B--8------8-----12----------------------------------------|
G----9------9------12------11------11-------11------11----|
5-----------------------------12------12-------12-----12--|
A--7---7-----7-------10-----------------------------------|
E--------------------------------10------10------10-----10|
   A                           C
e------------------------------------------------------------|
B------------------------------------------------------------|
G--6------6-----6------6--------9------9-------9------9------|
D----7------7-----7------7--------10-----10------10-----10---|
A------------------------------------------------------------|
E--5---5-----5------5------5--8-----8-------8------8-------8-|

VERSE (play the above)
Em                     G       D
Ready or not there you came to take it all
         A
When the running caught me high
         C
When the running caught me high
Em                           G     D          
Who would believe years from now i called a stone 
A                        
But he sun will still come out yeah
    C
The sun will still come out

CHORUS
Em D     C    G         Am     Em        F#   B7    
Go carry on i know your strong enough without me
    Em D        C        G        Am       Em
cos i  break my neck to take each day with you
   F#       B7
so don't be scared.


VERSE
show me thew world pouring through my window
its an old familiar face 
but its calling every day
throw me a kiss, last kiss through the cling film
and we're running hand in hand


CHORUS

Go carry on i know your strong enough without me
i break my neck to take each day with you
so don't be scared

Tap to rate this tab
# A B C D E F G H I J K L M N O P Q R S T U V W X Y Z