Guitaretab - guitar tabs
Song name
# A B C D E F G H I J K L M N O P Q R S T U V W X Y Z

Air Traffic - Shooting Star tab

Tabbed by: 651Tom
Email: tom_651@hotmail.co.uk

Tuning: E (Standard)
Time Signature: 4
                4

| /  Slide up
| \  Slide down
| h  Hammer-on
| p  Pull-off
| ~  Vibrato
| b  Bend


Verse 1  Piano & Vocals
e|--------------------------------------------------------|
B|--------------------------------------------------------|
G|--------------------------------------------------------|    x15
D|--------------------------------------------------------|
A|--------------------------------------------------------|
E|--------------------------------------------------------|

Chorus 1
e|------------------------------------------------------------------------|
B|----13-13-13-13-13-13-13--15-15-15-15-15-15-15--13-13-13-13-13-13-13----|
G|-/14--------------------14--------------------14------------------------|
D|------------------------------------------------------------------------|
A|------------------------------------------------------------------------|
E|------------------------------------------------------------------------|

e|------------------------------------------------------------------------|
B|-------------12b--------------------------------------------------------|
G|-14-14-12-14----14-12~--------------------------------------------------|
D|------------------------------------------------------------------------|
A|------------------------------------------------------------------------|
E|------------------------------------------------------------------------|

Verse 2
e|--------------------------------------------------------|
B|--------------------------------------------------------|
G|--------------------------------------------------------|    x15
D|--------------------------------------------------------|
A|--------------------------------------------------------|
E|--------------------------------------------------------|

e|--------------------------|
B|--------------------------|
G|-14-14-14-14-14-14-14-14--|     x2
D|--------------------------|
A|--------------------------|
E|--------------------------|

Chorus 2
e|------------------------------------------------------------------------|
B|------------------------------------------------------------------------|
G|------------------     Same As C1       --------------------------------|
D|------------------                      --------------------------------|
A|------------------------------------------------------------------------|
E|------------------------------------------------------------------------|

e|------------------------------------------------------------------------|
B|-------------------------13-13-13-13-13-13-13-13-12-12-12-12-12-12-12-12|
G|-/14-14-14-14-14-14-14-14-----------------------------------------------|
D|------------------------------------------------------------------------|
A|------------------------------------------------------------------------|
E|------------------------------------------------------------------------|

 1st Time Ending                    2nd Time Ending
e|-------------------------|       |---------------------------|
B|-/15-15-15-15-15-15-15-15|       |-/15-15-15-15--------------|
G|-------------------------|       |-------------14-12-14-12-14|
D|-------------------------|       |---------------------------|
A|-------------------------|       |---------------------------|
E|-------------------------|       |---------------------------|

Verse 3  Same As Verse 2

Chorus 3  Same As Chorus 2

Bridge
e|--------------------------------------------------------|
B|--------------------------------------------------------|
G|--------------------------------------------------------|    x8
D|--------------------------------------------------------|
A|--------------------------------------------------------|
E|--------------------------------------------------------|

Solo

e|--------------------------------------------------------|
B|------8-------------------------------------------------|
G|-/9-9---9-7----7-------------------------------------7--|    x2
D|------------10---10-7-10-7-7-7-7-7----7-7-7-7-10-7-10---|
A|-----------------------------------10-------------------|
E|--------------------------------------------------------|
[ Tab from: http://www.guitaretab.com/a/air-traffic/184174.html ]
e|------------------------------------------------------------------------|
B|------8------8-/10-10-10-10-10-10-10-10-/13-13-13-13-13-13\12-12-12-12--|
G|-/9-9---9-7-------------------------------------------------------------|
D|------------------------------------------------------------------------|
A|------------------------------------------------------------------------|
E|------------------------------------------------------------------------|

^^^Repeat, but play first phrase once^^^

e|--------------------------------------------------------|
B|-----8--------------------------------------------------|
G|-9-9---9-7----7--------------------------------------7--|
D|-----------10---10-7-10-7-7-7-7-7----7-7-7-7-10-7-10----|
A|----------------------------------10--------------------|
E|--------------------------------------------------------|

e|-----------------------------------------/8-8-8-8-7-7\--|
B|------8-------------------------------------------------|
G|-/9-9---9-7----7----------------------------------------|
D|------------10---10-7-10-7-7-7-7-7----7-7---------------|
A|-----------------------------------10-------------------|
E|--------------------------------------------------------|

e|--------------------------------------------------------------------|
B|------8-------------------------------------------------------------|
G|-/9-9---9-7----7------------------/7-7-7-/9-9-9-/12-12-12-/14-14-14-|
D|------------10---10-7-10-10-10-10-----------------------------------|
A|--------------------------------------------------------------------|
E|--------------------------------------------------------------------|

Bridge/End Of Solo
e|-------------------------------------------------------------------------|
B|/13-13-13-13-13-13\12-12-12-12-12-12/15-15-15-15-15-15\10-10-10-10-10-10-|
G|-------------------------------------------------------------------------|
D|-------------------------------------------------------------------------|
A|-------------------------------------------------------------------------|
E|-------------------------------------------------------------------------|

e|--------------------------------------------------------|
B|-10-10--------------------------------------------------|
G|--------------------------------------------------------| x2
D|--------------------------------------------------------|
A|--------------------------------------------------------|
E|--------------------------------------------------------|

e|------------------------------------------------------------------------|
B|-13p12--13p12--13p12-13p12-13p12--13p12-13p12--13p12--13p12-13-15-15-15|
G|------14-----14-----------14-----14-----------14-----14-----------------|
D|------------------------------------------------------------------------|
A|------------------------------------------------------------------------|
E|------------------------------------------------------------------------|

e|--------------------------------------------------------|
B|-15-15-15-15--------------------------------------------|
G|--------------------------------------------------------|
D|--------------------------------------------------------|
A|--------------------------------------------------------|
E|--------------------------------------------------------|

e|-------------------------------------------------------------------------|
B|----13--12--15-----------------------------------------------------------|
G|-14------------12-14-12-14-----------------------------------------------|
D|-------------------------------------------------------------------------|
A|-------------------------------------------------------------------------|
E|-------------------------------------------------------------------------|

e|------------------------------------------------------------------------|
B|-------------------------13-13-13-13-13-13-13-13-12-12-12-12-12-12-12-12|
G|-/14-14-14-14-14-14-14-14-----------------------------------------------|
D|------------------------------------------------------------------------|
A|------------------------------------------------------------------------|
E|------------------------------------------------------------------------|

e|----------------------------|
B|-/15-15-15-15---------------|
G|-------------14-12-14-12-14~|
D|----------------------------|
A|----------------------------|
E|----------------------------|

This tab is a correction of the other tabs on here. This song isn't very difficult, but 
rhythm of the solo can take a bit of time to get down. Depends.

Good luck!

- Tom
Related for Shooting Star tab