Guitaretab - guitar tabs
Song name
# A B C D E F G H I J K L M N O P Q R S T U V W X Y Z

Air Traffic - Shooting Star tab

Tabbed by Jwv_
This is the solo, the solo starts at 2:30.

e|----------------------------------------------------------------------|
B|-------8--------------------------------------------------------------|
G|-7/9-9---9-7\5-7-5---5-----------------------5---5-7--7-7-7-----------| (x2)
D|-------------------7----7-7-7-7-7-5-7--7-7-7---7----------------------|
A|----------------------------------------------------------------------|
E|----------------------------------------------------------------------|

e|----------------------------------------------------------------------|
B|-------8-----8-8/10-10-10-10-10-10/13-13-13-13-13-13-12-12-12-12------|
G|-7/9-9---9-7----------------------------------------------------------|
D|----------------------------------------------------------------------|
A|----------------------------------------------------------------------|
E|----------------------------------------------------------------------|

e|----------------------------------------------------------------------|
B|-------8--------------------------------------------------------------|
G|-7/9-9---9-7\5-7-5---5-----------------------5---5-7--7-7-7-----------|
D|-------------------7----7-7-7-7-7-5-7--7-7-7---7----------------------|
A|----------------------------------------------------------------------|
E|----------------------------------------------------------------------|

e|----------------------------------------------------------------------|
B|-------8-----8-8/10-10-10-10-10-10/13-13-13-13-13-13-12-12-12-12------|
G|-7/9-9---9-7----------------------------------------------------------|
D|----------------------------------------------------------------------|
A|----------------------------------------------------------------------|
E|----------------------------------------------------------------------|

e|----------------------------------------------------------------------|
B|-------8--------------------------------------------------------------|
G|-7/9-9---9-7\5-7-5---5-----------------------5---5-7--7-7-7-----------|
D|-------------------7----7-7-7-7-7-5-7--7-7-7---7----------------------|
A|----------------------------------------------------------------------|
E|----------------------------------------------------------------------|
[ Tab from: http://www.guitaretab.com/a/air-traffic/185884.html ]
e|----------------------------------------------------------------------|
B|-------8------------------------------13-13-13-13-12-12-12-12---------|
G|-7/9-9---9-7\5-7-5---5------------------------------------------------|
D|-------------------7----7-7-7-7-7-5-7---------------------------------|
A|----------------------------------------------------------------------|
E|----------------------------------------------------------------------|

e|----------------------------------------------------------------------|
B|-------8--------------------------------------------------------------|
G|-7/9-9---9-7\5-7-5---5--5-5-5-5/7-7-7-7/9-9-9-9/12-12-12-12-----------|
D|-------------------7--------------------------------------------------|
A|----------------------------------------------------------------------|
E|----------------------------------------------------------------------|

e|-----------------------------------------------------
B|-13-13-13-13-13-13-13-13-/12-12-12-12-12-12-12-12-12-
G|-----------------------------------------------------
D|-----------------------------------------------------
A|-----------------------------------------------------
E|-----------------------------------------------------

-----------------------------------------------------|
-/15-15-15-15-15-15-15-15-15-------------------------|
-----------------------------14-14-14-14-14-14-14-14-| (x2)
-----------------------------------------------------|
-----------------------------------------------------|
-----------------------------------------------------|

e|--------------------------------------------------------
B|-13-12---13-12--13-12-13-12--13-12--13-12-13-12--13-12--
G|-------14-----14-----------14-----14-----------14-----14
D|--------------------------------------------------------
A|--------------------------------------------------------
E|--------------------------------------------------------

-------------------------------------------------------|
-13-12-13-15-15-15-15-15-15-15-------------------------|
-------------------------------14-14-14-14-14-14-14-14-|
-------------------------------------------------------|
-------------------------------------------------------|
-------------------------------------------------------|

e|----------------------------------------------------------------------------|
B|-13-13-13-13-13-13-13-13-12-12-12-12-12-12-12-12-15-15-15-15----------------|
G|-------------------------------------------------------------14-12-14-12-14~|
D|----------------------------------------------------------------------------|
A|----------------------------------------------------------------------------|
E|----------------------------------------------------------------------------|
Related for Shooting Star tab