Song name
# A B C D E F G H I J K L M N O P Q R S T U V W X Y Z

Air Traffic - Your Fractured Life tab

This has long been a favourite song of mine,and I've finally gotten around to tabbing it out.

I think it's mostly correct, but the chords in the final section might be a little bit off.


--------------------------------|
--------------------------------|
6---2---4---7-6-6---2---4-------|     x4
--------------------------------|
--------------------------------|
--------------------------------|


--9-12-9----9-12-9-------10----------10------9-12-9----9-12-9----------|
10--------------------12----12----12----12-10--------------------------|
---------11--------12----------11---------------------11------12-------|
-----------------------------------------------------------------------|
-----------------------------------------------------------------------|
-----------------------------------------------------------------------|


--------------------------------|
--------------------------------|
6---2---4---7-6-6---2---4-------|     x2
--------------------------------|
--------------------------------|
--------------------------------|


----------------------------------------|
----------------------------------------|
12-12-12-12-7-7-7-7-14-14-14-14-7-7-7-7-|
12-12-12-12-7-7-7-7-14-14-14-14-7-7-7-7-| x3
10-10-10-10-5-5-5-5-12-12-12-12-5-5-5-5-|
----------------------------------------|

-----------------------------|
-----------------------------|
12-12-12-12-7-7-7-7-14-------|
12-12-12-12-7-7-7-7-14-------|
10-10-10-10-5-5-5-5-12-------|
-----------------------------|


--9-12-9----9-12-9-------10----------10------9-12-9-----9-12-9---------|
10--------------------12----12----12----12-10--------------------------|
---------11--------12----------11---------------------11-------12------|
-----------------------------------------------------------------------|
-----------------------------------------------------------------------|
-----------------------------------------------------------------------|


--9-12-9----9-12-9-------10----------10------9-12-9-----9-12-9-10------|
10--------------------12----12----12----12-10------------------12------|
---------11--------12----------11---------------------11-------12------|
-----------------------------------------------------------------------|
-----------------------------------------------------------------------|
-----------------------------------------------------------------------|

----------------------------------------|
----------------------------------------|
12-12-12-12-7-7-7-7-14-14-14-14-7-7-7-7-|
12-12-12-12-7-7-7-7-14-14-14-14-7-7-7-7-| x23
10-10-10-10-5-5-5-5-12-12-12-12-5-5-5-5-|
----------------------------------------|

-----------------------------|
-----------------------------|
12-12-12-12-7-7-7-7-14-------|
12-12-12-12-7-7-7-7-14-------|
10-10-10-10-5-5-5-5-12-------|
-----------------------------|


A second guitar comes in for the last bit, which plays
(tremolo)
5-----7-----------------------|
--------7-------5------8---7--|
------------------------------| x23
------------------------------|
------------------------------|
------------------------------|


5-----7-----------------|
--------7-------5-------|
------------------------|
------------------------|
------------------------|
------------------------|

Piano and vocal outro
Tap to rate this tab
# A B C D E F G H I J K L M N O P Q R S T U V W X Y Z