Song name
# A B C D E F G H I J K L M N O P Q R S T U V W X Y Z

Air - Ghost Song tab

-----------------------------------------------------------------------------
			     Ghost Song - Air
-----------------------------------------------------------------------------
Tabbed by: Kevin Barba
Email: the_kevin_b@hotmail.com



Guitar 1 - Repeats throughout entire song
e|-5-----5--6-----6--5-----5---6-----6--6-----6--7-----7--6-----6--7-----7|
B|-----7--------7--------7---------7--------8--------8--------8--------8--|
G|---6--------8--------6---------8--------7--------9--------7--------9----|
D|------------------------------------------------------------------------|
A|------------------------------------------------------------------------|
E|------------------------------------------------------------------------|




Guitar 2 - Distorted, starts at 1:00, repeats until end
e|--------------------11--------------------------------------------------|
B|-10--7--11---10--7-------11--10--8------11--10--8--12-------------------|
G|------------------------------------9-----------------------------------|
D|------------------------------------------------------------------------|
A|------------------------------------------------------------------------|
E|------------------------------------------------------------------------|


=============================================================================
Tap to rate this tab
# A B C D E F G H I J K L M N O P Q R S T U V W X Y Z