Song name
# A B C D E F G H I J K L M N O P Q R S T U V W X Y Z

Air - All I Need tab

---------------------------------------------------------------------------
			     All I Need - AIR
---------------------------------------------------------------------------

Tabbed by: Martin Maxwell
Email: mozer100@hotmail.com

Tuning: E A D F# B E (CAPO 1st fret)

ACOUSTIC GUITAR VERSION

Intro:

e|-----2---------------2----------------------------2------2--------------|
B|--0-----0----0-----2-----2----2----0------0-----2----2------------------|
G|-------0-0-----0----------0-----0----0------3-------0-0-----------------|
D|-----------------------0----0----------0------2---------0---------------|
A|--2--------2-------0---------------------0------2-----------------------|
E|-----------------------------------3------------------------------------|

e|----2----------------2--------------------------------------------------|
B|--0----0----0------2-----2----2----0------0-----------------------------|
G|------0-0-----0-----------0-----0----0------3---------------------------|
D|-----------------------0----0----------0------2-------------------------|
A|--2-------2--------0---------------------0------------------------------|
E|-----------------------------------3------------------------------------|

Vocals/Lyrics Start:

All I need is a little time…

e|----2---------------2---------------------------------------------------|
B|--0----0---0------2-----2-----2----0----------0-------------0-----------|
G|------0-0----0------------0-----0-----0---0--------3----------3---------|
D|----------------------0-----0----------0---0---------0----------2-------|
A|--2-------2-------0--------------------------------------0--------------|
E|-----------------------------------3-----3---3---3-----3----------------|

e|----2---------------2---------------------------------------------------|
B|--0---0----0------2-----2----2---0----------0---------------0--0--------|
G|-------0-----0-----------0----0----0----0----------3----------3---------|
D|----------2-----------0----0--------0----0----------0-------------------|
A|--2--2------------0--------------------------------------0--------------|
E|---------------------------------3----3---3------3-----3----------------|



Pre-Chorus/bridge – 

All in all there's something to give…                       

e|----2---------------2---------------2-----------------------------------|
B|--0---0----0------2-----2----2----0---0----0----------------------------|
G|-------0-----0-----------0----0--------0-----0--------------------------|
D|----------2-----------0----0--------------2-----------------------------|
A|--2--2------------0---------------2-------------------------------------|
E|------------------------------------------------------------------------|




Chorus: 

With you…

e|----------2-2---------5-------------------2-2--------5------------------|
B|---0--0--------5-5--5-----5-0--0-0--0--0------5-5--5---5-0--------------|
G|-------0----------5-----0---------------0--------5----------------------|
D|------------------------------------------------------------------------|
A|---2----2-2-2--0---0--0---0----2----2-----2-2-0---0--0-0----------------|
E|------------------------------------------------------------------------|


Outro: 

 Played Several times
e|------------------------------------------------------------------------|
B|--0-0---2-2----2--2-3--3------------------------------------------------|
G|-----0----------0-----0-------------------------------------------------|
D|------0------2---2------0-----------------------------------------------|
A|--2-----2-2--0------0---------------------------------------------------|
E|------------------------------------------------------------------------|



************************************

| /   slide up
| \   slide down
| h   hammer-on
| p   pull-off
| ~   vibrato
| +   harmonic
| x   Mute note
| b   Bend
| pb  Pre-bend
| br  Bend release
| pbr Pre-bend release
| brb Bend release bend

************************************
Tap to rate this tab
 
# A B C D E F G H I J K L M N O P Q R S T U V W X Y Z