Song name
# A B C D E F G H I J K L M N O P Q R S T U V W X Y Z

Air - The Song Of The Century tab

e-12(50x)-9~-------------------------------------------
b------------------------------------------------------
g------------------------------------------------------
d-------------------7777--777-555-2--222---------------
a-------------------7777--777-555-2--222--(5x)---------
e-------------------5555--555-333-0--000---------------


e-------------------------------------------
b-------------------------------------------
g---------999--9-----------777--7-----------
d---------999--99-999999---777--77-777777---
a---------777--79-999999---555--57-777777---
e---------------7-777777---------5-555555---


e--------------------------------------------------
b--------------------------------------------------
g---------999--9-----------777--7------------------
d---------999--99-999999---777--72-222222-2-222222-
a---------777--79-999999---555--52-222222-2-222222-
e---------------7-777777---------0-000000-0-000000-

e-5b7
b----
g----
d----
a----
e----
Tap to rate this tab
# A B C D E F G H I J K L M N O P Q R S T U V W X Y Z