Song name
# A B C D E F G H I J K L M N O P Q R S T U V W X Y Z

Air - How Does It Make You Feel tab

All of these chords came out of my noggin

Artist- Air
Album- 10,000 Hertz


Intro/Verse

   G  G# F  A  D# C  C# D
e------------------------------------------------|
B------------------------------------------------|
G--------------8--5--6--7------------------------|
D--5--6--3--7--8--5--6--7------------------------|
A--5--6--3--7--6--3--4--5------------------------|
E--3--4--1--5------------------------------------|

Pre Chorus

   C# D  Repeat until chorus kicks in
e------------------------------------------------|
B------------------------------------------------|
G--6--7------------------------------------------|
D--6--7------------------------------------------|
A--4--5------------------------------------------|
E------------------------------------------------|


Chorus
   F  A  D
e------------------------------------------------|
B------------------------------------------------|
G--------7---------------------------------------|
D--3--7--7---------------------------------------|
A--3--7--5---------------------------------------|
E--1--5------------------------------------------|
Tap to rate this tab
 
# A B C D E F G H I J K L M N O P Q R S T U V W X Y Z