Song name
# A B C D E F G H I J K L M N O P Q R S T U V W X Y Z

Air - Ce Matin La tab

Capo 4
relative to capo

guitar bit
e|--------0---------0--------------------------------------|
b|--9---------9---------9----------------------------------|
g|----8-----8---8-----8---8--------------------------------|
d|------9---------9---------9------------------------------|
a|---------------------------------------------------------|
e|---------------------------------------------------------|

e|-------0---------0---------------------------------------|
b|-7---------7---------7-----------------------------------|
g|---6-----6---6-----6---6---------------------------------|
d|-----7---------7---------7-------------------------------|
a|---------------------------------------------------------|
e|---------------------------------------------------------|

Might post the trombone(?) bit later
-danjofish
Tap to rate this tab
# A B C D E F G H I J K L M N O P Q R S T U V W X Y Z