Song name
# A B C D E F G H I J K L M N O P Q R S T U V W X Y Z

Air - Mike Mills tab

AIR : Mike Mills
Album: Talkie Walkie
Tabbed by Benoblest


The only tab I saw for this song was for the keyboard/synth/flute part.  I decided to 
give the actual acoustic guitar part a shot.  It is very accurate, but Iím sure its not 
100% as they like to improvise.
Theres really only one awkward chord shape, which is the C/Bb.  Enjoy!!!

Standard Tuning: EADGBE

Main Part:

E|-------0--------------0--------------------------------(0)----------0--------|
B|--8--------8-----8--------8----------0-----------0------------2----------2-3-|
G|--------------------------------5------5----5------5--------2------------2-2-|
D|-----9-------9------9-------9------5-----------5----------2------------2-----|
A|--7------7-------7------7-------3-----------------------0-----------0--------|
E|--------------------------------------------6--------------------------------|

E|-----------------------------------------------------------------------------|
B|------------------------0------------------------------------0---------------|
G|--7---7---7-------5--------5-----------7---7---7-------5--------5------------|
D|-----7-----7----------5-----5-------------7-----7----------5-----5-----------|
A|--5-----5---------3--------------------5-----5---------3---------------------|
E|-----------------------------------------------------------------------------|

E|-----------------------------------|----------------------------------------:|
B|------------------------0----------|--------------------7--------7\---------:|
G|--7---7---7-------5--------5-------|---7---7---7-------------7--------------:|
D|-----7-----7----------5-----5------|------7-----7----------7-------7--------:|
A|--5------5--------3----------------|---5-----5----------5------5------------:|
E|-Third Time Skip to Next Line Here-|----------------------------------------:|

Repeat 3X


E|-------------------0---------------------------------0--------0-------------:|
B|--3-----3-----3/6--------6----------3-----3-----3/6--------6----------------:|
G|------2---------------------5-----------2----------------5-----5------------:|
D|--0--------0---------0--------0-----0--------0------(0)---------------------:|
A|----------------------------------------------------------------------------:|
E|----------------------------------------------------------------------------:|

Repeat 2X

After Piano Interlude, it goes into this second interlude

E|------------------0--------------------------------0-------------------------|
B|--3---3--3---3/6--------6----------3---3--3---3/6--------6---6---------------|
G|----2------2------------5--5---------2------2----------5---------------------|
D|--0----0-------------0------0------0----0---------(0)------0-----------------|
A|-----------------------------------------------------------------------------|
E|------------------------------------------------------------------------=----|

E|------------------0-------------------------------------------0--------------|
B|--3---3--3---3/6--------6-------------------------------7---------7----------|
G|----2------2-----------(5)-5------7----7------7---------------------7--------|
D|--0----0-------------0------0--------7-----7------7---------7----------------|
A|----------------------------------5------5----5---------5--------------------|
E|-----------------------------------------------------------------------------|

After this go back to the very beginning!

This is all the parts of the song.  Figure out the rest of the order yourself! You have 
all the parts ☺
Tap to rate this tab
# A B C D E F G H I J K L M N O P Q R S T U V W X Y Z