Song name
# A B C D E F G H I J K L M N O P Q R S T U V W X Y Z

Air - Left Bank tab

============================================================================
                                  AIR - Left Bank
============================================================================
Album: Pocket Sympony
Written by Nicolas Godin & Jean-Benoit Dunckel

Tabbed by: Benoblest
Email:  Benoblest@gmail.com

Standard Tuning: EADGBE

Note:  I did not tab out the exact strumming patterns as a lot of it is improvised.  I 
only provide the chords/notes.  I also didn't tab the entire song because the same parts 
are used in the second half except for the outro.

Intro: 00:07

E|------------------------------|
B|------------------------------|
G|------------------------------|  Repeat
D|------------------------------|
A|--7--7-7--7-7--7-7--7--7--7---|
E|--0--0-0--0-0--0-0--0--0--0---|

Intro Continued:  00:12

E|------------------------------|
B|------------------------------|
G|------------------------------|  Repeat
D|--------6-(6)------6----------|
A|--6h7-7-7-(7)6h7-7-7--7---7---|
E|--0---0------0---0----0---0---|

Main Riff:  00:22

E|------------------0--(0)(0)(0)-----------------|
B|---------------3--0--(0)(0)(0)-3--(3)(3)-3-----|
G|------0--2-2/4----4--(4)(4)(4)-4--(4)(4)-4-----| Repeat
D|---2--2--2-2/4----4--(4)(4)(4)-4--(4)(4)-4-----|
A|---2--------------2--(2)(2)(2)-2--(2)(2)-2-----|
E|-0-0-------------------------------------------|


Verse:   00:40

Left Bank, Im waiting for someone...

E|------------------------------------------------|
B|-3-(3)2-(2)(2)-3p2-0----3-(3)2-(2)(2)-3p2-0-----|
G|-2-(2)2-(2)(2)-2---2-2--2-(2)2-(2)(2)-2---2-2---|
D|-2-(2)2-(2)(2)-2-----2--2-(2)2-(2)(2)-2-----2---|
A|-0-(2)0-(0)(0)-0-----0--0-(2)0-(0)(0)-0-----0---|
E|------------------------------------------------|

E|------------------0--(0)(0)(0)------------------|
B|---------------3--0--(0)(0)(0)-3--(3)(3)-3------|
G|------0--2-2/4----4--(4)(4)(4)-4--(4)(4)-4------| 2 X
D|---2--2--2-2/4----4--(4)(4)(4)-4--(4)(4)-4------|
A|---2--------------2--(2)(2)(2)-2--(2)(2)-2------|
E|-0-0--------------------------------------------|

01:20

I can't hold the sun

E|------------------------------------|
B|------------------------------------|
G|-----0-2-0-4------------------------|
D|---2---1-1-5---(5)-(5)-7p5---7-5----|
A|---2---2---5---(5)-(5)-7--7--7-7----|
E|-0-0-------0---(0)-(0)-0--0--0-0----|

E|-------------|-----------------------------|
B|-------------|-----------------------------|
G|-----0-2-0-0-|-----------------------------|  Repeat Last Half
D|---2---1-1-5-|-------6-(6)------6----------|          4X
A|---2---2---5-|-6h7-7-7-(7)6h7-7-7--7---7---|
E|-0-0-------0-|-0---0------0---0----0---0---|

Outro:

Chords (strummed)

E|------------------------|
B|--(0)--------(2)--------|
G|---0----------1---------|  Repeat
D|---2----------2---------|
A|---2----------4---------|
E|---0----------0---------|



Nicolas Godin: This is a song I wrote in a hotel room after a lovely weekend with a 
girl. And then Monday morning she left without saying a word and I wrote it on my guitar, 
very simple. Crazy French girls!
Jean-Benoit: Nicolas and I are always talking about this non-existent girl that we want 
to meet, that we’d like to have in our bed, the one who left, recently. In our minds we 
say to her, “come back I love you, I’ve been a naughty boy”. This is our obsession right now.
Tap to rate this tab
# A B C D E F G H I J K L M N O P Q R S T U V W X Y Z