Song name
# A B C D E F G H I J K L M N O P Q R S T U V W X Y Z

Air - Cherry Blossom Girl tab

---------------------------------------------------------------
		   Cherry Blossom Girl - Air
---------------------------------------------------------------


Transcribed by: John Nguyen
e-mail: sd_prophet@hotmail.com

Tuning: standard EADGBe

this is the little solo during the bridge.
it's probably a keyboard but it sounds
nice on the guitar.


Solo: (1:53)

e ------------16-----16--14--12------------------------|
B -----14--16--------------------16--12-----16-14------|
G --13-------------------------------------------------|
D -----------------------------------------------------|
A -----------------------------------------------------|
E -----------------------------------------------------|

e ------------16-----16--14--19--17--16----------------|
B -----14--16-------------------------------16-17------|
G --13-------------------------------------------------|
D -----------------------------------------------------|
A -----------------------------------------------------|
E -----------------------------------------------------|


===============================================================
Tap to rate this tab
 
# A B C D E F G H I J K L M N O P Q R S T U V W X Y Z