Song name
# A B C D E F G H I J K L M N O P Q R S T U V W X Y Z

Airbag - Feeling Less tab

                                          Artist - Airbag
                                         *****************
                                        Song - Feeling Less
                                       *********************
                                          Album - Identity
                                         ******************



Play Acoustic All the way through the song


Intro - Small Solo
*******************
  Am      G         Fmaj7  Em          Am      G         Fmaj7  Em
         s         s            s             s         s            s
[-12-----\7-----8--\12-----10---\15--|-12-----\7-----8--\12-----10---\15----]
[------------------------------------|--------------------------------------]
[------------------------------------|--------------------------------------]
[------------------------------------|--------------------------------------]
[------------------------------------|--------------------------------------]
[------------------------------------|--------------------------------------]


Verse 1
********
                                       Electric Guitar
          Am                   G       ***************
Thereís a pain deep inside and I      [--7--7--7--7--7--7--7--]
                Fmaj7                 [--8--8--8--8--8--8--8--]
I canít seem to follow you            [--9--9--9--9--9--9--9--]
   Em                                 [--9--9--9--9--9--9--9--]
To where I want to be                 [--7--7--7--7--7--7--7--]
Am                    G               [-----------------------]
  I remember when the snow fell on us
Fmaj7                                  Electric Guitar
  But the closer I get                 ***************
    Em                                [-----------------]
The more I feel like someone else     [------s----------]
                                      [--12--\--7----9--]
                                      [-----------------]
                                      [-----------------]
Electric Guitar                       [-----------------]
***************
01:00
                    Chorus
                    *******
  Em                 Fmaj7                      Am

                    How does it feel without    me
[--0------0---0----|--------0-----------0-----|--------0------------------]
[--0--0-----0---0--|------1---1-------1---1---|------1---1---3-----1------]
[--0---------------|----2-------2---2-------2-|----2-------2---2-----2----]
[--2---------------|--3-----------3-----------|--2---------------2-----2--]
[--2---------------|--------------------------|---------------------------]
[--0---------------|--------------------------|---------------------------]

  Fmaj7                      Am

 How does your life          feel
[--------0-----------0-----|--------0------------------]
[------1---1-------1---1---|------1---1---3-----1------]
[----2-------2---2-------2-|----2-------2---2-----2----]
[--3-----------3-----------|--2---------------2-----2--]
[--------------------------|---------------------------]
[--------------------------|---------------------------]

  Fmaj7                      Dsus2

 How does it feel to be      alone
[--------0-----------0-----|--------0-----------0------]
[------1---1-------1---1---|------3---3-------3---3----]
[----2-------2---2-------2-|----2-------2---2-------2--]
[--3-----------3-----------|--0-----------0------------]
[--------------------------|---------------------------]
[--------------------------|---------------------------]



01:28
Small Solo
***********
  Am      G         Fmaj7  Em          Am      G         Fmaj7  Em
         s         s            s             s         s            s
[-12-----\7-----8--\12-----10---\15--|-12-----\7-----8--\12-----10---\15----]
[------------------------------------|--------------------------------------]
[------------------------------------|--------------------------------------]
[------------------------------------|--------------------------------------]
[------------------------------------|--------------------------------------]
[------------------------------------|--------------------------------------]



Verse 2
********
     Am                G
Itís wearing me down inside
                 Fmaj7
And I can hardly see your face
   Em                             Electric Guitar
No silence left to steal          ***************
Am                               [-----------------]
  Iím not helpless               [------s----------]
      G                          [--12--\--7----9--]
But I think Iím getting close    [-----------------]
Fmaj7                            [-----------------]
  You can stay where you are     [-----------------]
    Em
But please  Not too far away




Chorus - Repeat picking Above
******************************


Organ
******
Acoustic Chords
****************
D C Fmaj7 Em - X5
03:22
Come in with this picking bit after the drums
  D                         C
[-------0-----------0-----|-------0-----------0-----]
[-----3---3-------3---3---|-----1---1-------1---1---]
[---2-------2---2-------2-|---0-------0---0-------2-]
[-0-----------0-----------|-2-----------2-----------]
[-------------------------|-------------------------]
[-------------------------|-------------------------]

 Fmaj7                     Em
[-------0-----------0-----|-------0-----------0------]
[-----1---1-------1---1---|-----0---0-------0---0----]
[---2-------2---2-------2-|---0-------0---0-------0--]
[-3-----------3-----------|-2-----------2------------]Play
[-------------------------|--------------------------]3
[-------------------------|--------------------------]Times


Acoustic Chords
****************
Fmaj7 Am
Fmaj7 Am
Fmaj7 D   - X2

Come in with this picking bit after the change
 Fmaj7                       Am
[--------0------------------|--------0------------------]
[------1---1---3-----1------|------1---1---3-----1------]
[----2-------2---2-----2----|----2-------2---2-----2----]
[--3---------------3-----3--|--2---------------2-----2--]
[---------------------------|---------------------------]
[---------------------------|---------------------------]

 Fmaj7                       Am
[--------0------------------|--------0------------------]
[------1---1---3-----1------|------1---1---3-----1------]
[----2-------2---2-----2----|----2-------2---2-----2----]
[--3---------------3-----3--|--2---------------2-----2--]
[---------------------------|---------------------------]
[---------------------------|---------------------------]

 Fmaj7                       Dsus2
[--------0------------------|--------0-----------0------]
[------1---1---3-----1------|------3---3-------3---3----]
[----2-------2---2-----2----|----2-------2---2-------2--]
[--3---------------3-----3--|--0-----------0------------]Play
[---------------------------|---------------------------]2
[---------------------------|---------------------------]Times

On the second Dsus2 strum it to end the song.


Enjoy.....
Tap to rate this tab
 
# A B C D E F G H I J K L M N O P Q R S T U V W X Y Z