Song name
# A B C D E F G H I J K L M N O P Q R S T U V W X Y Z

Airborne - Blackjack tab

Airbourne - Blackjack

Standard E tuning

inrto:-

e]---0-------0---------0-----5-[
b]-----4---4---4---------4---5-[
g]-5-----5-----------5-----5---[
d]-----------------------------[
a]-----------------------------[
e]-----------------------------[


e]---------------3-3---------------------3-3------[
b]---------------3-3-3--3----------------3-3-3--3-[
g]---------------0-0-2--2----------------0-0-2--2-[
d]-------------------0--0--------------------0--0-[   x2
a]-0-3p0-0-5-3p0----------0-3p0-0-5-3p0-----------[
e]------------------------------------------------[


verse:-

e]-------------------------------------------------[
b]-------------------------------------------------[
g]-------------------------------------------------[
d]-------------------------------------------------[  x2
a]-0-3p0-0-0-3p0-0-0-3p0-5-0-3p0-0-0-3p0-0-0-3p0-5-[
e]-------------------------------------------------[

e]-3-----------------------------3-----------------------------[
b]-3---3-------------------------3---3-------------------------[
g]-0---2-------------------------0---2-------------------------[
d]-----0-----------------------------0-------------------------[
a]---------3p0-0-0-3p0-0-0-3p0-5-------------------------------[
e]---------------------------------------3p0-0-0-3p0-0-0-3p0-5-[


chorus:-

e]---------------3-3---------------------3-3------[
b]---------------3-3-3--3----------------3-3-3--3-[
g]---------------0-0-2--2----------------0-0-2--2-[
d]-------------------0--0--------------------0--0-[   x2
a]-0-3p0-0-5-3p0----------0-3p0-0-5-3p0-----------[
e]------------------------------------------------[


verse:-

e]-------------------------------------------------[
b]-------------------------------------------------[
g]-------------------------------------------------[
d]-------------------------------------------------[  x2
a]-0-3p0-0-0-3p0-0-0-3p0-5-0-3p0-0-0-3p0-0-0-3p0-5-[
e]-------------------------------------------------[

e]-3---------------------------------3-------------------------[
b]-3---3-------------------------3---3-------------------------[
g]-0---2-------------------------2---0-------------------------[
d]-----0-------------------------0-----------------------------[
a]---------3p0-0-0-3p0-0-0-3p0-5-------------------------------[
e]---------------------------------------3p0-0-0-3p0-0-0-3p0-5-[


chorus:-

e]---------------3-3---------------------3-3------[
b]---------------3-3-3--3----------------3-3-3--3-[
g]---------------0-0-2--2----------------0-0-2--2-[
d]-------------------0--0--------------------0--0-[   x2
a]-0-3p0-0-5-3p0----------0-3p0-0-5-3p0-----------[
e]------------------------------------------------[


pre solo:-

e]---------------3-3---------------------3-3------[
b]---------------3-3-3--3----------------3-3-3--3-[
g]---------------0-0-2--2----------------0-0-2--2-[
d]-------------------0--0--------------------0--0-[
a]------------------------------------------------[
e]-0-3p0-0-5-3p0----------0-3p0-0-5-3p0-----------[

Tap to rate this tab
# A B C D E F G H I J K L M N O P Q R S T U V W X Y Z