Song name
# A B C D E F G H I J K L M N O P Q R S T U V W X Y Z

Airbourne - Whats Eatin You tab

i couldn't find a tab with this solo in,
so i did one,
i have put how far through the song you are above each line
to make it easier to learn.

tuning-standard

key
b bend
bhold bend and hold untill next note
v vibrato
h hammer
p pull-off
x muted note
/ slide up
\ slide down
() optional or quiter note


  2:04
e|-9-11-10-9-11-10-11-9-11---------------------9-11-10-9-11-10-11-9-11-----|
B|-------------------------9-11-9b-9h11p/7-9-7-----------------------------|
G|-------------------------------------------------------------------------|
D|-------------------------------------------------------------------------|
A|-------------------------------------------------------------------------|
E|-------------------------------------------------------------------------|

  2:11  
e|---------------9-11-10-9-11-10-11-9-11-9h11p\7--9v9v9b7hold--------------|
B|------------------------------------------------------------------22-----|
G|-9-9-9-9h11\p7----------------------------------------------------22-----|
D|------------------------------------------------------------------00-----|
A|-------------------------------------------------------------------------|
E|-------------------------------------------------------------------------|

Tap to rate this tab
# A B C D E F G H I J K L M N O P Q R S T U V W X Y Z