Song name
# A B C D E F G H I J K L M N O P Q R S T U V W X Y Z

Airbourne - When The Girls Gets Hot tab

Tabbed by ear by O' Live !

First this ...

|---------------------|---------------------|
|-9-------------------|-9-------------------|
|---10-8---8-10-------|---10-8---8-10-------|
|--------8------8-----|--------8------8-----|
|---------------------|---------------------|
|---------------------|---------------------|

 And this after the little break at 00:22.

|------------------------------------|
|-9----------------------------------|
|---10-8---8-10------------8---10-8--|
|--------8------8---8-11-8---8-------|
|------------------------------------|
|------------------------------------|

Enjoy !
Tap to rate this tab
# A B C D E F G H I J K L M N O P Q R S T U V W X Y Z