Song name
# A B C D E F G H I J K L M N O P Q R S T U V W X Y Z

Airbourne - Lets Ride chords

Help us improve GuitareTab! Take a short survey!
Highlighted       Show chord diagrams
Intro, Verse and Chorus
 Asus2   C   D   C   C
|-----------------------|
|-----------------------|
|-2-2-------------------|
|-2-2---2-2-2-2-2-2-2-2-|
|-0-0---0-3-0-5-0-3-0-3-|
|-----------------------|

Pre chorus:
She said what's up honey.....
 Em     G   A   G   G
|-----------------------|
|-----------------------|
|-----------------------|
|-2-2-------------------|
|-2-2---2-2-2-2-2-2-2-2-|
|-0-0---0-3-0-5-0-3-0-3-|

For the solo....
I think it's in Am but moves around the fret board a lot!

Thanks
BC
Related for Lets Ride chords