Song name
# A B C D E F G H I J K L M N O P Q R S T U V W X Y Z

Airbourne - When The Girl Gets Hot tab

Hello, this is my first tab, so some of the parts might be wrong. Also, don't be
by the X's and palm muted 0's, this is just the way I feel it should be played, you 
have
play it exactly like me.

Tabbed by: Lazzle22

The Tuning is: A Half Step Down

 = Palm Mute

INTRO (00:00)
                             x8
e|-------------------------|
B|--10--7-----------7------|
G|---------9-----9---------|  The 8th time, don't hold down the last note.
D|------------9--------9~--|
A|-------------------------|
E|-------------------------|

                                                     x4
e|-------------------------|-----------------------|
B|--10--7-----------7------|-----------------------|
G|---------9-----9---------|-------8-----9-----11--|
D|------------9--------9~--|----9-----9-----9------|
A|-------------------------|-----------------------|
E|-------------------------|-----------------------|

VERSE (00:38)
                                x4
e|------------------------------|-------------------------|
B|------------------------------|-------------------------|
G|-4-x-2-x-4--------2-----------|-------2-------2-----2---|
D|-4-x-2-x-4----2-x-2-x-2-------|---2-x-2-x-2-x-2-x-2-2---| <- 4th time
A|-2-x-0-x-2----2-x-0-x-2-------|---2-x-0-x-2-x-0-x-2-0---|
E|--------------0-x---x-0-------|---0-x---x-0-x---x-0-----|

You can change the x's with palm muted 0's, that's what I do.

BRIDGE (01:03)
                                                x4
e|---------------------|-----------------------|
B|-------3-3-----------|-----------------------|
G|-4-----2-2--2--------|-----2--2--------------|
D|-4-----0-0--2----2---|-----2--2---2----------|
A|-2-0--------0-0--2---|-----0--0---2----------|
E|-----------------0---|--0---------0----------|
                        

   4th time play this
e|----------------------|-----------------------|
B|------3-3-------------|-----------------------|
G|-4----2-2--2----------|-----------------------|
D|-4----0-0--2----2~----|--2~----2--2--2--2--2--|
A|-2-0-------0-0--2~----|--2~----2--2--2--2--2--|
E|----------------0~----|--0~----0--0--0--0--0--|
              
CHORUS (01:20)
                                                    x4
e|-------------------------|-----------------------|
B|--10--7-----------7------|-----------------------|
G|---------9-----9---------|-------8-----9-----11--|
D|------------9--------9~--|----9-----9-----9------|
A|-------------------------|-----------------------|
E|-------------------------|-----------------------|

VERSE  (01:32)
BRIDGE (01:57)

CHORUS (02:13)
                                                    x4
e|-------------------------|-----------------------|
B|--10--7-----------7------|-----------------------|
G|---------9-----9---------|-------8-----9-----11--|
D|------------9--------9~--|----9-----9-----9------|
A|-------------------------|-----------------------|
E|-------------------------|-----------------------|

CHORUS 2 (02:25)

(Note: This is probaply not the way you play it, but I think it sounds close enough)
                                                    x2
e|-------------------------|-----------------------|
B|-12-12---10-10--12~------|-----------------------|
G|-11-11----9--9--11~------|-------9-9-------------|
D|-------------------------|--9-9--7-7--9~---------|
A|-------------------------|--7-7-------7~---------|
E|-------------------------|-----------------------|

2nd Time you play this

e|-----------------------------|
B|-----------------------------|
G|------9-9-------9-9-----9----|
D|-9-9--7-7--9-9--7-7--9--7----|
A|-7-7-------7-7-------7-------|
E|-----------------------------|

SOLO   (02:38) (Rhythm plays the BRIDGE riff here)
CHORUS (02:54)

CHORUS 3 (03:19)

Here you simply play Chorus 2, but with more strokes

e|------------------------------|-----------------------|
B|-121212--101010--121212121212-|-----------------------|
G|-111111---9-9-9--111111111111-|-------999-------------|
D|------------------------------|--999--777--999999-----|
A|------------------------------|--777-------777777-----|
E|------------------------------|-----------------------|

(If you listen closely, they sometimes skip the G and A string, but you can just play it 
that)

CHORUS 4 (03:30)  (Btw, I just call em' Chorus 1, 2, 3 etc. Cuz I got no idea what to 
them ;0)

This part isn't right either, but what the hek!

e|---------------------------------------|-----------------------------------|
B|-19-19-19-17-17-17--19-19-19-19-19-19--|--17-17-17--22-22-22--17-17-17-17--|
G|-16-16-16-16-16-16--16-16-16-16-16-16--|--16-16-16--16-16-16--16-16-16-16--|
D|---------------------------------------|-----------------------------------|
A|---------------------------------------|-----------------------------------|
E|---------------------------------------|-----------------------------------|

e|---------------------------------------------------------------------------|
B|-17-17---------------------------------------------------------------------|
G|-16-16---------------------------------------------------------------------|
D|---------------------------------------------------------------------------|
A|---------------------------------------------------------------------------|
E|---------------------------------------------------------------------------|

OUTRO (03:40)

e|----------------------------|-------------------------|
B|----------------------------|--10--7------------7-----|
G|-------9-9-------9-9-----9--|----------9-----9--------|
D|--9-9--7-7--9-9- 7-7--9--7--|-------------9--------9~-|
A|--7-7-------7-7-------7-----|-------------------------|
E|----------------------------|-------------------------|

Not quite sure what they play here, but something like

e|-----------------------|
B|-------5-7-------5-7---|
G|--9-8-------9-8--------| Repeat Till End.
D|-----------------------|
A|-----------------------|
E|-----------------------|

Have Fun!
Tap to rate this tab
# A B C D E F G H I J K L M N O P Q R S T U V W X Y Z