Song name
# A B C D E F G H I J K L M N O P Q R S T U V W X Y Z

Airbourne - Blackjack tab

"Blackjack" by Airbourne
tabbed by Matt Lummus. Check http://www.youtube.com/user/biglu30 for video

I REALIZE THAT THERE ARE ALREADY VERSIONS OF THIS BUT THEY ARE EITHER INCOMPLETE OR INCORRECT
although some of the rhythms may not seem correct they are. if you listen closely you will see.


INTRO
E--0---0-----0---5---------------|
B---4-4-4-----4--5---------------|
G-5--5------5--5-----------------|
D--------------------------------|
A--------------------------------|
E--------------------------------|

E---------------33----------------------33-----33-------|
B--------3------33--3333---------3------33--33-33-------|
G-----2--2---2--00--2222------2--2---2--00--22-00---X2--|
D-----2--0---2--00--0000------2--0---2--00--00-00-------|
A-3p0-0--0-3-0---2--0000--3p0-0--0-3-0---2--00--2-------|
E----------------3-----------------------3------3-------|


VERSE
E---------------------------------|
B-------------------------3-------|
G-----2---2-----2---2-----2----X4-|
D-----2---2-----2---2-----0-------|
A-3p0-0---0-3p0-0---0-3p0---------|
E---------------------------------|

E-3----------------------------------------|
B-3----3---------------------------3-------|
G-0----2-------2---2-----2---2-----2-------|
D-0----0-------2---2-----2---2-----0-------|
A-2----0---3p0-0---0-3p0-0---0-3p0---------|
E-3----------------------------------------|

E-3-------------------------------3-3--|
B-1----3--------------------------3-3--|
G-0----2--------------------------0-0--|
D-2----0----2-----2-2------2-2-2--0-0--|
A-3----0----2-----2-2------2-2-2--2-2--|
E-----------0-3p0-0-0--3p0-0-0-0--3-3--|


CHORUS
E---------------33----------------------33-----33-------|
B--------3------33--3333---------3------33--33-33-------|
G-----2--2---2--00--2222------2--2---2--00--22-00---X2--|
D-----2--0---2--00--0000------2--0---2--00--00-00-------|
A-3p0-0--0-3-0---2--0000--3p0-0--0-3-0---2--00--2-------|
E----------------3-----------------------3------3-------|

VERSE

CHORUS


BRIDGE
E--------------------------------------|
B---------------33---------------------|
G--------2------22-2---(X3)------------|
D-----2--2---2--00-2-------------------|
A-----2--0---2--00-0-------------------|
E-3p0-0----3-0-------------------------|

E-0--0--0---033------------------------|
B-0--0--0---033--3--3------------------|
G-4--4--4---400--2--2------------------|
D-2--2--2---200--0--0------------------|
A-2--2--2---222--0--0------------------|
E-0--0--0---033------------------------|


SOLO
Rhythm plays chorus
 (really those 9's are just the sustained bend)
E--5---55------------------5---55---------------|
B--5---55-7--------5-7-----5---55-7-------------|
G--7b9-99-7--5-----5-7---5-7b9-99-7-5------002--|
D-------------7---7------------------77----000--|
A-----------------------------------------------|
E-----------------------------------------------|


E-----------------------5-----12---12.15.15.12--------|
B-5--585---585---585---88b10--15b17-------------------|
G-7b9---757---757---757-------------------------------|
D-----------------------------------------------------|
A-----------------------------------------------------|
E-----------------------------------------------------|

       (spaced just to make neat)
E-12-----15-15-12-10-15-15-12-10-15-15-12-10-15-15-12-10---20-20b22-17-20b22-|
B-15b17----------------------------------------------------------------------|
G----------------------------------------------------------------------------|
D----------------------------------------------------------------------------|
A----------------------------------------------------------------------------|
E----------------------------------------------------------------------------|


Interlude
E-----33------------33---------------------|
B-----22--3----3----22--3------3-----------|
G-2---00--2----22---00--2------2-----------|
D-2----0--0----02----0--0------0----X3-----|
A-0----2--0----00----2--0------0-----------|
E------3-------------3---------------------|

E-----33---------------------------|
B-----22--3-----------------/10-10-|
G-2---00--2------2-2-2-2----/9--9--|
D-2----0--0------2-2-2-2-----------|
A-0----2--0------0-0-0-0-----------|
E------3---------------------------|

CHORUS X3

ENDING
E--------------------------------|
B-3------------------------------|
G-2---PLAY THIS A BUNCH OF TIMES-|
D-0------------------------------|
A-0------------------------------|
E--------------------------------|
Tap to rate this tab
 
# A B C D E F G H I J K L M N O P Q R S T U V W X Y Z