Song name
# A B C D E F G H I J K L M N O P Q R S T U V W X Y Z

Airbourne - Diamond In The Rough tab

Intro, Come in after drums

D ------3--2--2-2-2---3----------------|
A ------3--3--3-3-3---3----------------|
F ------0--2--2-0-2---0--2-------------|
C ---2--0--0--0-0-0---0--2--2-2-0-2----|
G ---2--2--0--0-0-0---2--0--2-2-0-2----|
D ---0--3--x--x-x-x---3-----0-0-0-0----|


D ------3--2--2-2-2---3---------------------|
A ------3--3--3-3-3---3---------------------|
F ------0--2--2-0-2---0--2------------------|
C ---2--0--0--0-0-0---0--2--2-2-2----2------|
G ---2--2--0--0-0-0---2--0--2-2-2----2------|
D ---0--3--x--x-x-x---3-----0-0-0-2b-0-2b---|


Verse

D -------------3-----3-----------------|
A -------------3-----3-----------------|
F -------------0--2--0--2-2------------|  X4
C ---2---------0--2--0--2-2------------|
G ---2---------2--0--2--0-0------------|
D ---0--x-x-x--3-----3-----------------|


D -------------x--x---x--x-x--------------x--x--x--x--3----|
A -------------3--3---3--3-3--------------3--3--3--3--3----|
F -------2-2---0--2---0--2-2---------2-2--0--2--0--2--0----|
C -------2-2---2--0---2--0-0---------2-2--2--0--2--0--0----|
G ---3bp-0-0---3--0---3--0-0-----3bp-0-0--3--0--3--0--2----|
D -------------x--x---x--x-x--------------x--x--x--x--3----|

Go back to first riff in the verse and play it twice

Pre Chorus

D ---------------------3-3--2-----------|
A ---------------------3-3--3-----------|
F ---4-4-4-4--2-2-2-2--0-0--2-----------|
C ---4-4-4-4--2-2-2-2--0-0--0-----------|
G ---2-2-2-2--0-0-0-0--2-2--0-----------|
D ---------------------3-3--x-----------|

Chorus, the same as the intro.


Solo, not done yet. Play the verse underneath it.


End on

D ----3-----------------|
A ----3-----------------|
F ----0--2--------------|
C ----0--2--2-----------|
G ----2--0--2-----------|
D ----3-----0-----------|
Let last chord fade out

Song order;

Intro
Verse
Pre chorus
Chorus
Verse
Pre chorus
Chorus
Solo
Chorus X2
Tap to rate this tab
 
# A B C D E F G H I J K L M N O P Q R S T U V W X Y Z