Song name
# A B C D E F G H I J K L M N O P Q R S T U V W X Y Z

Airbourne - Cheap Wine And Cheaper Women tab

Intro and Chorus  Play 4 times

E --------------------------------------|
B --------------------------------------|
G --------------------------------------|
D --------------------------------7-----|
A ---------5--------7--5/7-5---5--5-7---|
E -\-0-5/7----0h5h7----------7------5---|


Verse  Play twice and on second time stop the
last two chords as soon as you strike them

E --------------x---x------x----------|
B --------------3---2------3----------|
G --------------2---0------2--2-------|
D --2-----------0---0------0--2-------|
A --2-----------0---2------0--0-------|
E --0-----------x---3------x----------|


Solo section rhythm guitar  not done solo yet

E --------------------------------x--x----|
B --------------------------------2--3----|
G --------------------------------0--2----| Play Twice
D --------5--------7--5/7-5---5---0--0----|
A --0-5/7----0h5h7----------7-----2--0----|
E --------------------------------3--x----|


E --------------------------------------|
B --------------------------------------|
G ---------2--------4--2/4-2---2--2-9---|   Play Once
D -----2h4------2h4----------4----2-9---|
A -2-2--------2-------------------0-7---|
E --------------------------------------|


E -------------------------------x------|
B -------------------------------3------|
G ---------2-------4--2/4-2---2--2--2---|   Play Once
D -----2h4-----2h4----------4----0--2---|
A -2-2-------2-------------------0--0---|
E -------------------------------x------|


Then repeat the verse and chorus twice


End on

E -------------------|
B -------------------|
G ---7---------------|
D ---7--7--2---------|
A ---5--7--2---------|
E ------5--0---------|
Tap to rate this tab
# A B C D E F G H I J K L M N O P Q R S T U V W X Y Z