Airbourne - Heads Are Gonna Roll tab

AIRBOURNE - HEADS ARE GONNA ROLL

David Roads rythm guitar



|  tab by DOUGLAS BÁNFALVI  |
|  wwww.youtube.com/rnrgod  |


(F# or standart tune + capo on 2th fret)


(intro) & (refrão): 

f#||-------------------------------------||
C#||-------------------------------------||
A ||-------------------------------------||
E ||--2--2--0----------------------------||
B ||--2--------2--0-----0-----0--2-------||
F#||--0--------------3-----3--------0----||




(verso) & (base do solo):

f#|--------------------------------3----|
C#|-------3---------3--------------3----|
A |-------2---------2----2----2----0----|
E |--2----0----2----0----2----2----0----|
B |--2---------2---------0----0----2----|
F#|--0---------0-------------------3----|


f#|-----------------------------------------------------3----|
C#|-----------------------3----3----3----3--------------0----|
A |-----------------------2----2----2----2----2----2----0----|
E |--2----2----2----2-----0----0----0----0----2----2----0----|
B |--2----2----2----2-------------------------0----0----2----|
F#|--0----0----0----0-----------------------------------3----|


f#|--------------------------------3--------------3--------------3---------||
C#|--------------------------------3--------------3--------------3---------||
A |----------------------2----2----0----2----2----0----2----2----0----2----||
E |--2----2----2----2----2----2----0----2----2----0----2----2----0----2----||
B |--2----2----2----2----0----0----2----0----0----2----0----0----2----0----||
F#|--0----0----0----0--------------3--------------3--------------3---------||




(pré-refrão):

f#||--------------------------------------------------|
C#||--3-----------------------------------------------|
A ||--2----2------------------------------------------|
E ||--0----2----2-------2-----2--2-----2-----2--------|
B ||-------0----2-------2-----2--0-----2-----2--------|
F#||------------0----3--0--3--0--0--3--0--3--0--3-----|


f#||-----------------------------------------------------------------|   
C#||--3--------------------------------------------------------------|
A ||--2----2---------------------------------------------------------|
E ||--0----2----------------2--2--0-----------------2--2--0----------|
B ||-------0-------------------------2-----------------------2-------|
F#||------------0--3--0--3--------------3--0--3--0--------------3----|


f#||---------------------------3----||
C#||--3------------------------3----||
A ||--2----2----4----4----2----0----||
E ||--0----2----4----4----2----0----||
B ||-------0----2----2----0----2----||
F#||---------------------------3----||


Tap to rate this tab
 
# A B C D E F G H I J K L M N O P Q R S T U V W X Y Z