Song name
# A B C D E F G H I J K L M N O P Q R S T U V W X Y Z

Airbourne - Blonde Bad And Beautiful tab

Airbourne: Blonde Bad and Beautiful Intro
Tuning: Half Step Up
INTRO: 

Lead Guitar
e||--------------------------------------------------||
B||--------------------------------------------------||
G||--11-11--9--8--9--9--8-11--11-11-11-11-11-11-11-11||
D||---9--9--9--9--9--9--9--9---9--9--9--9--9--9--9--9||
A||--------------------------------------------------||
E||--------------------------------------------------||

Rhythm Guitar (Comes in at start of the second run through)
e||-----------------------------||
B||-----------------------------||
G||--4---------------------4----||
D||--4----------2----------4----||
A||--2----------2----------2----||
E||-------------0---------------||

Lead
e|---------------------------------------------------||   
B||---------------------------10-10-10-10-10-10-10-10||
G||--11-11-9-8-9--9--8-11---9--9--9--9--9--9--9--9||
D||---9-9-9--9--9--9--9--9-------------------------||X2
A||--------------------------------------------------||
E||--------------------------------------------------||

Rhythm
e||--------------------------||
B||--------------------------||
G||--4---------------------2-||
D||--4----------2----------2-||
A||--2----------2----------0-||
E||-------------0------------||

End of Intro
Lead
e||--------------------------||
B||--------------------------||
G||--11-11--9--8--9--9--8-11-||
D||---9--9--9--9--9--9--9--9-||
A||--------------------------||
E||--------------------------||

Rhythm
e||--------------------------||
B||--------------------------||
G||--4---------------------2-||
D||--4----------2----------2-||
A||--2----------2----------0-||
E||-------------0------------||

I will try to do the rest of the song and put it up sometime.
Enjoy

Tap to rate this tab
 
# A B C D E F G H I J K L M N O P Q R S T U V W X Y Z