Airbourne - No Way But The Hard Way tab

-----------------------------------------------------------------------------
		     NO WAY BUT THE HARD WAY - Airbourne
		   From the 2010 album 'NO GUTS. NO GLORY.'
-----------------------------------------------------------------------------


INTRO
Riff A
e|------------------------|------------------------|
B|-5----3-----3-----------|-5----3------3----------|
G|-4-4--2-2---2-2---------|-4-4--2-2----2-2--------|X2
D|-2-4--0-2---0-2---0--2--|-2-4--0-2----0-2----2---|
A|---2----0-x---0---0--2--|---2----0-x----0----2---|
E|------------------3--0--|------------------3-0---|

VERSE
Riff A X2

BRIDGE

e|-3-----------3-------------|
B|-3--3--------3--3-------3--|
G|-0--2--2-----0--2-44444-2--|
D|-0--0--2-----0--0-44444-0--|
A|-0-----0-----0----22222----|
E|-3-----------3-------------|

CHORUS

e|--------------------------------------------|
B|-5---------3-------------5-----3------------|
G|-4-4--4----2-2-----------4-4---2-2----------|
D|-2-4--4-0--0-2--2-2------2-2---0-2-2-2-2----| x2
A|---2--2-0----0--2-2--------2-----2-2-2-2----|
E|-----------------------------------0-0-0----|


VERSE2
RiffA X2

BRIDGE

CHORUS

PRE SOLO
e|-----------------------|------------------------|  
B|--10b-10b-10b----------|--10b-10b-10b-----------|
G|-12b-12b-12b-----------|--12b-12b-12b-----------|
D|-----------------------|------------------------|
A|-----------------------|------------------------|
E|-----------------------|------------------------|


e|----------------------|-------------------------|
B|--12b-12b-12b---------|--12b-12b-12b------------|
G|--14b-14b-14b---------|--14b-14b-14b------------|
D|----------------------|-------------------------|
A|----------------------|-------------------------|
E|----------------------|-------------------------|


SOLO

e|-12-12------------------------------------------------------------|
B|---------14h12-------12b--------------------------------12--------|
G|------------------14----12-----------12------14-14b---12----------|
D|---------------------------14----/14----14------------------------|
A|------------------------------------------------------------------|
E|------------------------------------------------------------------|


e|----------------------------------------------------------12-15-12--|
B|---------------------12b------------14b----------12/15--------------|
G|---------------------12b------------14b--14-12----------------------|
D|--14p12-------------------14p12h14----------------------------------|
A|---------14p12------------------------------------------------------|
E|-----------------12-------------------------------------------------|


e|--------------------------------------------------------------------|
B|------------------------------3------------12----14b--14------------|
G|------------------------------2-2----------12----14b--14------------|
D|------------------------------0-2----2------------------------------|
A|-2p0h2p0h2p0h2p0h2p0h2p0h2p0----0----2------------------------------|
E|-----------------------------------3-0------------------------------|


e|--------------------------------12-12-12-12-12----------------------|
B|-12--14b-14-14b-12------12---14-12-12-12-12-12---12b----------------|
G|-12--14b-14-14b-12------12---14---------------------12b-------------|
D|--------------------------------------------------------------------|
A|--------------------------------------------------------------------|
E|--------------------------------------------------------------------|


BREAKDOWN

e|----------|------------|
B|--5-----3-|--3---------|
G|--4--4--2-|--2--2------|
D|--2--4--0-|--0--2--2---|
A|-----2----|-----0--2---|
E|----------|--------0---|


The rest of the song is simply the main riff, repeated:


CHORUS

e|---------------------------------------------|
B|-5---------3-------------5------3------------|
G|-4-4--4----2-2-----------4--4---2-2----------|
D|-2-4--4-0--0-2--2-2------2--2---0-2-2-2-2----| 
A|---2--2-0----0--2-2---------2-----2-2-2-2----|
E|------------------------------------0-0-0----|


/ |slide up
h |hammer on
p |pull of
b |bending
x |palm mute

                             by
                          COSMOROCK!
Tap to rate this tab
 
# A B C D E F G H I J K L M N O P Q R S T U V W X Y Z