Song name
# A B C D E F G H I J K L M N O P Q R S T U V W X Y Z

Airbourne - Bottom Of The Well tab

Intro 

     S   Q     S   E   Q      E  Q        Q      Q    Q      Q     
E||-----------------------------------|---------------------------|
B||-----------------------------------|---------------------------|
G||-------------------10b----10--8----|--10br----8----------------|
D||--8h-10~----8h-10------------------|---------------8h----10----|
A||-----------------------------------|---------------------------|
E||-----------------------------------|---------------------------|
 
 
  Q    Q      Q    Q       Q     Q    Q      Q        Q      Q    Q     
------------------------|-------------------------|--------------------|
------------------------|-------------------------|--------------------|
--8----------------8----|-------------------------|--10b----10----8----|
-------8s----10---------|--8----10----8h----10----|--------------------|
------------------------|-------------------------|--------------------|
------------------------|-------------------------|--------------------|
 
 
  Q     Q     Q      Q        Q     Q     Q     Q       Q      
--------------------------|--------------------------|-------||
--------------------------|--------11----10----------|-------||
--8----10----12s----10----|--12----------------12----|--8----||
--------------------------|--------------------------|-------||
--------------------------|--------------------------|-------||
--------------------------|--------------------------|-------||
 
 
 
 
Duration Legend
---------------
W - whole
H - half
Q - quarter
E - 8th
S - 16th
T - 32nd
X - 64th
. - note dotted
|-n-|  - n-tuplets
 
 
Tablature Legend
----------------
L - tied note
x - dead note
g - grace note
(n) - ghost note
> - accentuded note
NH - natural harmonic
AH - artificial harmonic
TH - tapped harmonic
SH - semi harmonic
PH - pitch harmonic
h - hammer on
p - pull off
b - bend
br - bendRelease
pb - preBend
pbr - preBendRelease
brb - bendReleaseBend
\n/ - tremolo bar dip
\n - tremolo bar dive
-/n - tremolo bar Release up
/n\ - tremolo bar inverted dip
/n - tremolo bar return
-\n - tremolo bar Release down
S - shift slide
s - legato slide
/ -  slide into from below or out of upwards
\ -  slide into from above or out of downwards
~ - vibrato
W - wide vibrato
tr - tril'
TP - tremolo picking
T - tapping
S - slap
P - pop
< - fade in
^ - brush up
v - brush down
Tap to rate this tab
 
# A B C D E F G H I J K L M N O P Q R S T U V W X Y Z