Airbourne - Bottom Of The Well tab

E||---------------------------------|---------------------------|
B||---------------------------------|---------------------------|
G||-------------------9b----9--7----|--9b---9--7----------7~----|
D||---9~----7h-9--------------------|---------------7h--9-------|
A||---------------------------------|---------------------------|
E||---------------------------------|---------------------------|
 

E||-----------------------------------|--------------------------------||
B||-----------------------------------|-----------------10--9--7-------||
G||-----7------------------9b----9--7~|-7h-9--11--9~---------------7~--||
D||---7---7--9~----7h-9---------------|--------------------------------||
A||-----------------------------------|--------------------------------||
E||-----------------------------------|--------------------------------||
 




Duration Legend
---------------
W - whole
H - half
Q - quarter
E - 8th
S - 16th
T - 32nd
X - 64th
. - note dotted
|-n-|  - n-tuplets
 
 
Tablature Legend
----------------
L - tied note
x - dead note
g - grace note
(n) - ghost note
> - accentuded note
NH - natural harmonic
AH - artificial harmonic
TH - tapped harmonic
SH - semi harmonic
PH - pitch harmonic
h - hammer on
p - pull off
b - bend
br - bendRelease
pb - preBend
pbr - preBendRelease
brb - bendReleaseBend
\n/ - tremolo bar dip
\n - tremolo bar dive
-/n - tremolo bar Release up
/n\ - tremolo bar inverted dip
/n - tremolo bar return
-\n - tremolo bar Release down
S - shift slide
s - legato slide
/ -  slide into from below or out of upwards
\ -  slide into from above or out of downwards
~ - vibrato
W - wide vibrato
tr - tril'
TP - tremolo picking
T - tapping
S - slap
P - pop
< - fade in
^ - brush up
v - brush down

Tap to rate this tab
 
# A B C D E F G H I J K L M N O P Q R S T U V W X Y Z