Airbourne - Overdrive tab

ok i will touch up on this later, but i will lay down some structures for others to put 
in their versions
this is my first song eared so ell me how i did in the comments.

Intro/verse
e|-----------------------------------------------------------------|
B|-----------------------------------------------------------------|
G|-2-----------------------------2---------------------------------|
D|-2----2--2---------2-----2-----2---------------------------------|
A|-0----2--2---------2-----2-----0---------------------------------|
E|---3b-0---0--------0--3--0--3------------------------------------|

Bridge to chorus coming soon

Chorus

E|----------------------------------------------------------------|
B|-------------3------3-------------------------------------------|
G|-----------2-2--2-2-2-2-----------------------------------------|
D|--2-2--5---2-0--2-2-0-2-----------------------------------------|
A|--2-2--5---0----0-0---0-----------------------------------------|
E|--0-0--3-----------------------------and so on------------------|
Tap to rate this tab
 
# A B C D E F G H I J K L M N O P Q R S T U V W X Y Z