Song name
# A B C D E F G H I J K L M N O P Q R S T U V W X Y Z

Airbourne - Chewin The Fat tab

Here is the Intro, Verse, Chorus and solo to Chewin the Fat by Airbourne.



INTRO


E----3-3--2-2--5-5--4-4----|
B----3-3--3-3--5-5--5-5----|
G--------------------------|
D--------------------------|
A--------------------------|
E--------------------------|  X1



CHORUS

E----3-3---------------------------|
B----3-3--3-3----------------------|
G----0-0--2-2--2-2-----------------|
D----0-0--0-0--2-2--2-2------------|
A----X-X-------0-0--2-2------------|
E----3-3------------0-0--3b4r3-0---|


VERSE


E---------------------------------------|
B------------------3---3---3------------|
G--4-2-4-2-4-2-2---2-2-2-2-2-2-2--------|
D--2-2-2-2-2-2-2---0-2-0-2-0-2-2--------|
A--0-0-0-0-0-0-0-----0---0---0-0--------|
E---------------------------------------|  X2



2nd Part of Verse

E-------------------------------------|
B-------------------------------------|
G--4-4-4-2--2-4-4-4-2--2-4-4-2--------|
D--2-2-2-2--2-2-2-2-2--2-2-2-2--------|
A--0-0-0-0--0-0-0-0-0--0-0-0-0--------|
E-------------------------------------|


E--------------------------------------|
B--3-3-3------3-3-3------3-3-----------|
G--2-2-2-2--2-2-2-2-2--2-2-2-2---------|
D--0-0-0-2--2-0-0-0-2--2-0-0-2---------|
A--------0--2-------0--0-----0---------|
E--------------------------------------| X2


Pre-Chorus

E----------------------------------------|
B--3---3---3-----------------------------|
G--2-2-2-2-2-2--2222222222222------------|
D--0-2-0-2-0-2--2222222222222----2-------|
A----0---0---0--0000000000000----2-------|
E------------------------------3-0-------|


SOLO


E--8-8--7-7--10-10--9-9--10-9-7--8-8--7-7--10-10--9-9--10-9-7--|
B--------------------------------------------------------------|
G--------------------------------------------------------------|
D--------------------------------------------------------------|
A--------------------------------------------------------------|
E--------------------------------------------------------------|

E--10\12-12-12-12----12-14b-14b----17b-17b-17b---------|
B-----------------15-----------------------------------|
G------------------------------------------------------|
D------------------------------------------------------|
A------------------------------------------------------|
E------------------------------------------------------|

The whole song is my opinion and i think its correct but all opinions are welcome 
at Gelliott127@hotmail.com.

LONG LIVE AIROURNE!!!!!111
Tap to rate this tab
 
# A B C D E F G H I J K L M N O P Q R S T U V W X Y Z