Airbourne - Steel Town tab

Here is the intro, verse and chorus to the song Steel Town, I havent got the solo yet 
but ill work on it.

*The verse and chorus follow the same pattern but they are a little different


Main Riff/Chorus

E-----------3-3----3--3-3-----------3-3---------------------|
B-----------3-3----3--3-3-----------3-3--1-3-1-3---1---1----|
G----2-0-2--0-0--2-0--0-0----2-0-2--0-0--0-2-0-2---0-2-0----|
D----2-0-2--0-0--2-0--0-0----2-0-2--0-0--------------2------|
A----0-0-0--X-X--0-X--X-X----0-0-0--X-X---------------------|
E-----------3-3----3--3-3-----------3-3---------------------|


Verse

E----------3~------3--3-3---------3~----------------------|
B----------3~------3--3-3---------3~---1-3-1-3---1---1----|
G----2~----0~----2-0--0-0----2~---0~---0-2-0-2---0-2-0----|
D----2~----0~----2-0--0-0----2~---0~---------------2------|
A----0~----X~----0-X--X-X----0~---X~----------------------|
E----------3~------3--3-3---------3~----------------------|

The whole song is just these two pieces of music over and over again.

I havent got the solo yet but if anyone knows it you can e-mail me at 
Gelliott127@hotmail.com or you can reach me on Ultimate Guitar as Garizard1
Tap to rate this tab
 
# A B C D E F G H I J K L M N O P Q R S T U V W X Y Z