Airbourne - Bottom Of The Well tab

Bottom of the Well by Airbourne
from No Guts, No Glory

Standard Tuning

INTRO
E|------------------------------------------------------------|
B|------------------------------------------------------------|
G|-------------------9b----9--7------9b---9--7----------7~----|
D|---9~----7h-9-----------------------------------7h--9-------|
A|------------------------------------------------------------|
E|------------------------------------------------------------|
 

E|--------------------------------------------------------------------|
B|-----------------------------------------------------10--9--7-------|
G|-----7------------------9b----9--7~--7h-9--11--9~---------------7~--|
D|---7---7--9~----7h-9------------------------------------------------|
A|--------------------------------------------------------------------|
E|--------------------------------------------------------------------|

VERSE                                    x2
e------------------------------------------|
A------------------------------------------|
G--4-4-4-44--4-4-4-44--4-4-4-44--4-4-4-44--|
D--4-4-4-44--4-4-4-44--4-4-4-44--4-4-4-44--|
A------------------------------------------|
E------------------------------------------|
 
0.32
e--------------------------------------------------------------------------|
A--------------------------------------------------------------------------|
G--44-44---44-44----44-44----44-44----------44--44----77-77--99-999999-----|
D--44-44---44-44----44-44----44-44-------0--44--44----77-77--99-999999-----|
A--22-22p0-22-22p0--22-22p0--22-22p0-0h2----22--22p0--55-55--77-777777-----|
E--------------------------------------------------------------------------|

CHORUS
e-------------------------------------------------|
A-------------------------------------------------|
G-------2-2-4~---44--4/7\4-------------44--4/7\4--|
D--4-4--2-2-4~---44--4/7\4------0------44--4/7\4--|
A--4-4--0-0-2~---22p02/5\2--0h2---2p0--22p02/5\2--|
E--2-2--------------------------------------------|

1.08
e------------------------------------------------------|
A------------------------------10b---------------------|
G--7br--7h9p7~--9br-7----9br-7------9br-7--------7b----|
D---------------------9-------------------9--7-9----9--|
A------------------------------------------------------|
E------------------------------------------------------|

The rest of the sing just repeats previous parts

Any corrections please comment
Thanks
Tap to rate this tab
 
# A B C D E F G H I J K L M N O P Q R S T U V W X Y Z