Song name
# A B C D E F G H I J K L M N O P Q R S T U V W X Y Z

Airbourne - Get Busy Livin tab

Here is da intro, verse, pre-chorus, chorus and bridge to 'Get Busy Livin' by
Airbourne from the No Guts No Glory album




INTRO

E----------------------------------------------|
B----------------------------------------------|
G----------------------------------------------|
D--2-4-4-2-5--2-4-4-2-5--2-4-4-2-5--2-4-4-2-2--|
A--0-0-0-0-0--0-0-0-0-0--0-0-0-0-0--0-0-0-0-0--|
E----------------------------------------------| X2



VERSE

E--------------------------------------------------|
B--------------------------------------------------|
G--------------------------------------------------|
D--2-4-4-2-5~--2-4-4-2-5~--2-4-4-2-5~--2-4-4-2-2~--|
A--0-0-0-0-0~--0-0-0-0-0~--0-0-0-0-0~--0-0-0-0-0~--|
E--------------------------------------------------| x4



PRE-CHORUS

E--3----------3-----------3----------3------------------3-----|
B--3-------3--3-----------3-------3--3------------------3--3--|
G--0-------2--0--2--------0-------2--0------------------0--2--|
D--0-------0--0--2--------0-------0--0--2---2---2---2---0--0--|
A--2----------2--0--------2----------2--2---2---2---2---2-----|
E--3----------3-----------3----------3--0---0---0---0---3-----| x1



CHORUS

E------------------------3---------------------------3----|
B------------------------3--3------------------------3-3--|
G------------------------0--2------------------------0-2--|
D--2-4-4-2-5--2-4-4-2-5--0--0--2-4-4-2-5--2-4-4-2-2--0-0--|
A--0-0-0-0-0--0-0-0-0-0--2-----0-0-0-0-0--0-0-0-0-0--2----|
E------------------------3---------------------------3----| chorus x 2



2nd verse

E----------------------------------------------|
B----------------------------------------------|
G----------------------------------------------|
D--2-4-4-2-5--2-4-4-2-5--2-4-4-2-5--2-4-4-2-2--|
A--0-0-0-0-0--0-0-0-0-0--0-0-0-0-0--0-0-0-0-0--|
E----------------------------------------------| x2

E--------------------------------------------------|
B--------------------------------------------------|
G--------------------------------------------------|
D--2-4-4-2-5~--2-4-4-2-5~--2-4-4-2-5~--2-4-4-2-2~--|
A--0-0-0-0-0~--0-0-0-0-0~--0-0-0-0-0~--0-0-0-0-0~--|
E--------------------------------------------------| x2



PRE-CHORUS

E--3----------3-----------3----------3------------------3-----|
B--3-------3--3-----------3-------3--3------------------3--3--|
G--0-------2--0--2--------0-------2--0------------------0--2--|
D--0-------0--0--2--------0-------0--0--2---2---2---2---0--0--|
A--2----------2--0--------2----------2--2---2---2---2---2-----|
E--3----------3-----------3----------3--0---0---0---0---3-----| x1



CHORUS

E------------------------3---------------------------3----|
B------------------------3--3------------------------3-3--|
G------------------------0--2------------------------0-2--|
D--2-4-4-2-5--2-4-4-2-5--0--0--2-4-4-2-5--2-4-4-2-2--0-0--|
A--0-0-0-0-0--0-0-0-0-0--2-----0-0-0-0-0--0-0-0-0-0--2----|
E------------------------3---------------------------3----|



then there's the solo, i havent got it yet but the rhythm for it is the chorus, 
then there's the bridge:



"I'm gonna ride every wave and break every chain in my way"

E-----------3~--------------------------------3~------------------------------|
B-----------3~-------------------3~-----------3~------------------------------|
G-----------0~-------------------2~-----------0~------------------------------|
D-----------0~-------------------0~-----------0~---------2-4-4-2-4--2-4-4-2-4-|
A-----------2~--------------------------------2~---------0-0-0-0-0--0-0-0-0-0-|
E-----------3~--------------------------------3~------------------------------|


"Gonna live till I die drink and get high every day"

E--------3~----------------------------3~-------------------------3-------|
B--------3~---------------3~-----------3~-------------------------3--3----|
G--------0~---------------2~-----------2~-------------------------0--2----|
D--------0~---------------0~-----------0~---------2---2---2---2---0--0----|
A--------2~----------------------------2~---------2---2---2---2---2-------|
E--------3~----------------------------3~---------0---0---0---0---3-------|



CHORUS

E------------------------3---------------------------3----|
B------------------------3--3------------------------3-3--|
G------------------------0--2------------------------0-2--|
D--2-4-4-2-5--2-4-4-2-5--0--0--2-4-4-2-5--2-4-4-2-2--0-0--|
A--0-0-0-0-0--0-0-0-0-0--2-----0-0-0-0-0--0-0-0-0-0--2----|
E------------------------3---------------------------3----|


Thats all I got, all opinions are wecome at my UG account Garizard1.

Thanks for viewing
Tap to rate this tab
# A B C D E F G H I J K L M N O P Q R S T U V W X Y Z