Song name
# A B C D E F G H I J K L M N O P Q R S T U V W X Y Z

Airbourne - No One Fits Me Better Than You tab

Just listen for timing and any changes in the song. Very easy song.
I haven't sat down to figure out the solo yet.


Intro/Riff 1

e|---------------------------------------------------------------|
B|---------3---------------3------------------3---------------3--|
G|---------2---2-----------2---2--------------2---2-----------2--|
D|-2-2-----0---2-----2-2---0---2------2-2-----0---2----2-2----0--|
A|-2-2---------0-----2-2-------0------2-2---------0----2-2-------|
E|-0-0---------------0-0--------------0-0--------------0-0-------|

Riff 2
e|----------------------------------|----------------------------|
B|----------------------------------|----------------------------|
G|--------------------------------2-|-2--2--2--2-2---------------|
D|--------------2--2--------0-----2-|-2--2--2--2-2---------------|
A|-5~--4--0--2--2--2-----2-----2--0-|-0--0--0--0-0---------------|
E|--------------0--0--3-------------|----------------------------|
     Play Riff 2 Six times, play the extra A notes on the final time
     


Riff 3
e|---------------------------------------------------------------|
B|---------3---------------3------------------3--------------3-3-|
G|---------2---2-----------2---2--------------2---2----------2-2-|
D|-2-2-----0---2-----2-2---0---2------2-2-----0---2----2-2---0-0-|
A|-2-2---------0-----2-2-------0------2-2---------0----2-2-------|
E|-0-0---------------0-0----------3---0-0--------------0-0-------|


Riff 2 and Riff 3 basically repeat back and forth. Riff 3 plays during the solo
with and they add the first three notes of Riff 2 on the end.



| /  slide up
| \  slide down
| h  hammer-on
| p  pull-off
| ~  vibrato
| +  harmonic
| x  Mute note
Tap to rate this tab
 
# A B C D E F G H I J K L M N O P Q R S T U V W X Y Z