Song name
# A B C D E F G H I J K L M N O P Q R S T U V W X Y Z

Airbourne - Blonde Bad And Beautiful tab

Blonde, Bad, and Beautiful
Airbourne

This is how I play the song. Maybe it isn't exactly the same as they play it, but this 
sounds good I think.

Standard Tuning



Intro
e|-------------------------------|--------------------------5----|
B|--7--7--5--4--5--5--4--7--7----|--4--7--7--5--4--5--5--4--5----|
G|--4--4--4--4--4--4--4--4--4----|--4--4--4--4--4--4--4--4-------|
D|-------------------------------|-------------------------------|
A|-------------------------------|-------------------------------|
E|-------------------------------|-------------------------------|

e|-----------------------------|
B|-----------------------------|
G|--4---------------------4----|
D|--4----------2----------4----|
A|--2----------2----------2----|
E|-------------0---------------|

e|--------------------------|
B|--------------------------|
G|--4---------------------2-|
D|--4----------2----------2-|
A|--2----------2----------0-|
E|-------------0------------|

Verse
e|-------2--------------------------------------------|
B|-------3--------------------------------------------|
G|--4----2----2----4---------2----2---------2----4----|
D|--4---------2----4---------2----2----2----2----4----|
A|--2---------0----2---------0----0----2----0----2----|
E|----------------------3--------------0--------------|

Pre-Chorus
e|-------------------------------------0------------------- |      \
B|-------------------------------------3---------|     ---- |
G|----4--4--------4--------4-----4-----2--2------|     ---- |
D|----4--4--------4--------4-----4--------2------|     ---- |
A|-0--2--2--2--2--2--2--2--2--2--2--2-----0------|     ---- |
E|-0---------------------------------------------|      |-- |x2
                                                                |
e|-------------------------------------------------|   -- |
B|-------------------------------------------------|   -- |
G|----4--4--------4--------4-----------2---2-------|   -- |
D|----4--4--------4--------4-----------2---2--2----|   -- |
A|-0--2--2--2--2--2--2--2--2--2------------0--2----|   -- |
E|-0------------------------------------------0---------- |    /

e|-------------------------------------------------|
B|-------------------------------------------------|
G|------------------------------------2---2--------|
D|--0--2--0--2------------------------2---2-2-----|
A|--0--0--0--2----------------------------0-2-----|
E|-----------0--~----------------------------0-----|

e|-----------------------------------------------------|
B|-----------------------------------------------------|
G|-----------------------------------------------------|
D|--0--2--0--2---4---4---4--4--4--4-------2-----2--2---|
A|--0--0--0--2---4---4---4--4--4--4----0--0--0--0--0---|
E|-----------0---2---2---2--2--2--2--------------------|





Chorus
e|--------------------------------------------------------------------------|
B|--------------------------------------------------------------------------|
G|--4-----------2----------------------4--4-----4---------------------------|
D|--4------2----2------2---0--2--0-----4--4--2--4------7--7--6--7-----------|
A|--2------2----0------2---0--0--0-----2--2--2--2------7--7--6--7-----------|
E|---------0-----------0-------------------------------5--5--4--5-----------|
    Blond, Bad, Beauti-Ful             Blond,Bad   and Beautiful


Pre-Solo
e|--2-------------------------------|
B|--3----------------3--------------|
G|--2-----------2----2----2----4----|
D|---------2----2---------2----4----|
A|---------2----0---------0----2----|
E|---------0------------------------|

Solo Chords
e|---------------------------------------|
B|---------------------------------------|
G|--4--4----------2--2-------------------|
D|--4--4---2--2---2--2---2--2---0--2-0--|
A|--2--2---2--2---0--0---2--2---0--0-0--|
E|---------0-0----------0--0------------|

Now everything is tabbed. Some parts are repeated, so listen to the song to know when 
you need to play each part.

Enjoy ;D
Tap to rate this tab
 
# A B C D E F G H I J K L M N O P Q R S T U V W X Y Z